  0
SECTION
  2
HEADER
  9
$ACADVER
  1
AC1014
  9
$ACADMAINTVER
 70
     0
  9
$DWGCODEPAGE
  3
ANSI_1252
  9
$INSBASE
 10
0.0
 20
0.0
 30
0.0
  9
$EXTMIN
 10
0.0
 20
0.0
 30
0.0
  9
$EXTMAX
 10
11.0
 20
8.5
 30
0.0
  9
$LIMMIN
 10
0.0
 20
0.0
  9
$LIMMAX
 10
12.0
 20
9.0
  9
$ORTHOMODE
 70
     0
  9
$REGENMODE
 70
     1
  9
$FILLMODE
 70
     1
  9
$QTEXTMODE
 70
     0
  9
$MIRRTEXT
 70
     1
  9
$DRAGMODE
 70
     2
  9
$LTSCALE
 40
1.0
  9
$OSMODE
 70
     0
  9
$ATTMODE
 70
     1
  9
$TEXTSIZE
 40
0.2
  9
$TRACEWID
 40
0.05
  9
$TEXTSTYLE
  7
STANDARD
  9
$CLAYER
  8
0
  9
$CELTYPE
  6
BYLAYER
  9
$CECOLOR
 62
   256
  9
$CELTSCALE
 40
1.0
  9
$DELOBJ
 70
     1
  9
$DISPSILH
 70
     0
  9
$DIMSCALE
 40
1.0
  9
$DIMASZ
 40
0.18
  9
$DIMEXO
 40
0.0625
  9
$DIMDLI
 40
0.38
  9
$DIMRND
 40
0.0
  9
$DIMDLE
 40
0.0
  9
$DIMEXE
 40
0.18
  9
$DIMTP
 40
0.0
  9
$DIMTM
 40
0.0
  9
$DIMTXT
 40
0.18
  9
$DIMCEN
 40
0.09
  9
$DIMTSZ
 40
0.0
  9
$DIMTOL
 70
     0
  9
$DIMLIM
 70
     0
  9
$DIMTIH
 70
     1
  9
$DIMTOH
 70
     1
  9
$DIMSE1
 70
     0
  9
$DIMSE2
 70
     0
  9
$DIMTAD
 70
     0
  9
$DIMZIN
 70
     0
  9
$DIMBLK
  1

  9
$DIMASO
 70
     1
  9
$DIMSHO
 70
     1
  9
$DIMPOST
  1

  9
$DIMAPOST
  1

  9
$DIMALT
 70
     0
  9
$DIMALTD
 70
     2
  9
$DIMALTF
 40
25.4
  9
$DIMLFAC
 40
1.0
  9
$DIMTOFL
 70
     0
  9
$DIMTVP
 40
0.0
  9
$DIMTIX
 70
     0
  9
$DIMSOXD
 70
     0
  9
$DIMSAH
 70
     0
  9
$DIMBLK1
  1

  9
$DIMBLK2
  1

  9
$DIMSTYLE
  2
STANDARD
  9
$DIMCLRD
 70
     0
  9
$DIMCLRE
 70
     0
  9
$DIMCLRT
 70
     0
  9
$DIMTFAC
 40
1.0
  9
$DIMGAP
 40
0.09
  9
$DIMJUST
 70
     0
  9
$DIMSD1
 70
     0
  9
$DIMSD2
 70
     0
  9
$DIMTOLJ
 70
     1
  9
$DIMTZIN
 70
     0
  9
$DIMALTZ
 70
     0
  9
$DIMALTTZ
 70
     0
  9
$DIMFIT
 70
     3
  9
$DIMUPT
 70
     0
  9
$DIMUNIT
 70
     2
  9
$DIMDEC
 70
     4
  9
$DIMTDEC
 70
     4
  9
$DIMALTU
 70
     2
  9
$DIMALTTD
 70
     2
  9
$DIMTXSTY
  7
STANDARD
  9
$DIMAUNIT
 70
     0
  9
$LUNITS
 70
     2
  9
$LUPREC
 70
     4
  9
$SKETCHINC
 40
0.1
  9
$FILLETRAD
 40
0.5
  9
$AUNITS
 70
     0
  9
$AUPREC
 70
     0
  9
$MENU
  1
.
  9
$ELEVATION
 40
0.0
  9
$PELEVATION
 40
0.0
  9
$THICKNESS
 40
0.0
  9
$LIMCHECK
 70
     0
  9
$BLIPMODE
 70
     0
  9
$CHAMFERA
 40
0.5
  9
$CHAMFERB
 40
0.5
  9
$CHAMFERC
 40
1.0
  9
$CHAMFERD
 40
0.0
  9
$SKPOLY
 70
     0
  9
$TDCREATE
 40
2450772.666465926
  9
$TDUPDATE
 40
2452855.978749989
  9
$TDINDWG
 40
0.0011796412
  9
$TDUSRTIMER
 40
0.0011796412
  9
$USRTIMER
 70
     1
  9
$ANGBASE
 50
0.0
  9
$ANGDIR
 70
     0
  9
$PDMODE
 70
     0
  9
$PDSIZE
 40
0.0
  9
$PLINEWID
 40
0.0
  9
$COORDS
 70
     1
  9
$SPLFRAME
 70
     0
  9
$SPLINETYPE
 70
     6
  9
$SPLINESEGS
 70
     8
  9
$ATTDIA
 70
     0
  9
$ATTREQ
 70
     1
  9
$HANDLING
 70
     1
  9
$HANDSEED
  5
980
  9
$SURFTAB1
 70
     6
  9
$SURFTAB2
 70
     6
  9
$SURFTYPE
 70
     6
  9
$SURFU
 70
     6
  9
$SURFV
 70
     6
  9
$UCSNAME
  2

  9
$UCSORG
 10
0.0
 20
0.0
 30
0.0
  9
$UCSXDIR
 10
1.0
 20
0.0
 30
0.0
  9
$UCSYDIR
 10
0.0
 20
1.0
 30
0.0
  9
$PUCSNAME
  2

  9
$PUCSORG
 10
0.0
 20
0.0
 30
0.0
  9
$PUCSXDIR
 10
1.0
 20
0.0
 30
0.0
  9
$PUCSYDIR
 10
0.0
 20
1.0
 30
0.0
  9
$USERI1
 70
     0
  9
$USERI2
 70
     0
  9
$USERI3
 70
     0
  9
$USERI4
 70
     0
  9
$USERI5
 70
     0
  9
$USERR1
 40
0.0
  9
$USERR2
 40
0.0
  9
$USERR3
 40
0.0
  9
$USERR4
 40
0.0
  9
$USERR5
 40
0.0
  9
$WORLDVIEW
 70
     1
  9
$SHADEDGE
 70
     3
  9
$SHADEDIF
 70
    70
  9
$TILEMODE
 70
     1
  9
$MAXACTVP
 70
    48
  9
$PINSBASE
 10
0.0
 20
0.0
 30
0.0
  9
$PLIMCHECK
 70
     0
  9
$PEXTMIN
 10
1.000000E+20
 20
1.000000E+20
 30
1.000000E+20
  9
$PEXTMAX
 10
-1.000000E+20
 20
-1.000000E+20
 30
-1.000000E+20
  9
$PLIMMIN
 10
0.0
 20
0.0
  9
$PLIMMAX
 10
12.0
 20
9.0
  9
$UNITMODE
 70
     0
  9
$VISRETAIN
 70
     1
  9
$PLINEGEN
 70
     0
  9
$PSLTSCALE
 70
     1
  9
$TREEDEPTH
 70
  3020
  9
$PICKSTYLE
 70
     1
  9
$CMLSTYLE
  2
STANDARD
  9
$CMLJUST
 70
     0
  9
$CMLSCALE
 40
1.0
  9
$PROXYGRAPHICS
 70
     1
  9
$MEASUREMENT
 70
     0
  0
ENDSEC
  0
SECTION
  2
CLASSES
  0
CLASS
  1
LWPOLYLINE
  2
AcDbPolyline
  3
"AutoCAD"
 90
        0
280
     0
281
     1
  0
CLASS
  1
IMAGE
  2
AcDbRasterImage
  3
ISM
 90
      127
280
     0
281
     1
  0
CLASS
  1
OLE2FRAME
  2
AcDbOle2Frame
  3
""
 90
        0
280
     0
281
     1
  0
CLASS
  1
HATCH
  2
AcDbHatch
  3
"ACAD_SEDONA"
 90
        0
280
     0
281
     1
  0
CLASS
  1
DICTIONARYVAR
  2
AcDbDictionaryVar
  3
"AutoCAD"
 90
        0
280
     0
281
     0
  0
CLASS
  1
RASTERVARIABLES
  2
AcDbRasterVariables
  3
ISM
 90
        0
280
     0
281
     0
  0
CLASS
  1
IMAGEDEF
  2
AcDbRasterImageDef
  3
ISM
 90
        0
280
     0
281
     0
  0
CLASS
  1
IMAGEDEF_REACTOR
  2
AcDbRasterImageDefReactor
  3
ISM
 90
        1
280
     0
281
     0
  0
CLASS
  1
IDBUFFER
  2
AcDbIdBuffer
  3
"Acad"
 90
        0
280
     0
281
     0
  0
CLASS
  1
SPATIAL_FILTER
  2
AcDbSpatialFilter
  3
"Acad"
 90
        0
280
     0
281
     0
  0
CLASS
  1
XRECORD
  2
AcDbXrecord
  3
"<Built In>"
 90
        0
280
     0
281
     0
  0
CLASS
  1
SORTENTSTABLE
  2
AcDbSortentsTable
  3
"AutoCAD"
 90
        0
280
     0
281
     0
  0
CLASS
  1
LAYER_INDEX
  2
AcDbLayerIndex
  3
"Acad"
 90
        0
280
     0
281
     0
  0
CLASS
  1
SPATIAL_INDEX
  2
AcDbSpatialIndex
  3
"Acad"
 90
        0
280
     0
281
     0
  0
CLASS
  1
OBJECT_PTR
  2
CAseDLPNTableRecord
  3
"ASE-LPNTableRecord"
 90
        1
280
     0
281
     0
  0
CLASS
  1
LAYOUT
  2
AcDbLayout
  3
"AutoCAD 2000"
 90
        1
280
     0
281
     0
  0
CLASS
  1
PLOTSETTINGS
  2
AcDbPlotSettings
  3
"AutoCAD 2000"
 90
        1
280
     0
281
     0
  0
CLASS
  1
ACDBDICTIONARYWDFLT
  2
AcDbDictionaryWithDefault
  3
"AutoCAD 2000"
 90
        1
280
     0
281
     0
  0
CLASS
  1
ACDBPLACEHOLDER
  2
AcDbPlaceHolder
  3
"AutoCAD 2000"
 90
        1
280
     0
281
     0
  0
CLASS
  1
VBA_PROJECT
  2
AcDbVbaProject
  3
"acadvba"
 90
        1
280
     0
281
     0
  0
CLASS
  1
WIPEOUT
  2
AcDbWipeout
  3
WipeOut|AutoCAD Express Tool|expresstools@autodesk.com
 90
      127
280
     0
281
     1
  0
CLASS
  1
WIPEOUTVARIABLES
  2
AcDbWipeoutVariables
  3
WipeOut|AutoCAD Express Tool|expresstools@autodesk.com
 90
        0
280
     0
281
     0
  0
CLASS
  1
RTEXT
  2
RText
  3
RText|AutoCAD Express Tool|expresstools@autodesk.com
 90
        0
280
     0
281
     1
  0
CLASS
  1
ARCALIGNEDTEXT
  2
AcDbArcAlignedText
  3
ATEXT|AutoCAD Express Tool|expresstools@autodesk.com
 90
        0
280
     0
281
     1
  0
ENDSEC
  0
SECTION
  2
TABLES
  0
TABLE
  2
VPORT
  5
8
100
AcDbSymbolTable
 70
     1
  0
VPORT
  5
25
100
AcDbSymbolTableRecord
100
AcDbViewportTableRecord
  2
*ACTIVE
 70
    64
 10
0.0
 20
0.0
 11
1.0
 21
1.0
 12
5.5
 22
4.25
 13
0.0
 23
0.0
 14
0.5
 24
0.5
 15
0.5
 25
0.5
 16
0.0
 26
0.0
 36
1.0
 17
0.0
 27
0.0
 37
0.0
 40
8.5
 41
1.294118
 42
50.0
 43
0.0
 44
0.0
 50
0.0
 51
0.0
 71
     0
 72
   100
 73
     1
 74
     1
 75
     0
 76
     0
 77
     0
 78
     0
  0
ENDTAB
  0
TABLE
  2
LTYPE
  5
5
100
AcDbSymbolTable
 70
     5
  0
LTYPE
  5
12
100
AcDbSymbolTableRecord
100
AcDbLinetypeTableRecord
  2
BYBLOCK
 70
    64
  3

 72
    65
 73
     0
 40
0.0
  0
LTYPE
  5
13
100
AcDbSymbolTableRecord
100
AcDbLinetypeTableRecord
  2
BYLAYER
 70
    64
  3

 72
    65
 73
     0
 40
0.0
  0
LTYPE
  5
14
100
AcDbSymbolTableRecord
100
AcDbLinetypeTableRecord
  2
CONTINUOUS
 70
    64
  3
Solid line
 72
    65
 73
     0
 40
0.0
  0
LTYPE
  5
C9
100
AcDbSymbolTableRecord
100
AcDbLinetypeTableRecord
  2
DASHED
 70
     0
  3
DASHED
 72
    65
 73
     2
 40
0.75
 49
0.5
 74
     0
 49
-0.25
 74
     0
  0
LTYPE
  5
592
100
AcDbSymbolTableRecord
100
AcDbLinetypeTableRecord
  2
DASHED2
 70
     0
  3
DASHED2
 72
    65
 73
     2
 40
0.375
 49
0.25
 74
     0
 49
-0.125
 74
     0
  0
ENDTAB
  0
TABLE
  2
LAYER
  5
2
100
AcDbSymbolTable
 70
     3
  0
LAYER
  5
E
100
AcDbSymbolTableRecord
100
AcDbLayerTableRecord
  2
0
 70
    64
 62
     7
  6
CONTINUOUS
  0
LAYER
  5
107
100
AcDbSymbolTableRecord
100
AcDbLayerTableRecord
  2
DIMENSIONS
 70
     0
 62
     7
  6
CONTINUOUS
  0
LAYER
  5
41B
100
AcDbSymbolTableRecord
100
AcDbLayerTableRecord
  2
ANNOTATIONS
 70
     0
 62
     7
  6
CONTINUOUS
  0
ENDTAB
  0
TABLE
  2
STYLE
  5
3
100
AcDbSymbolTable
 70
     4
  0
STYLE
  5
F
100
AcDbSymbolTableRecord
100
AcDbTextStyleTableRecord
  2
STANDARD
 70
    64
 40
0.0
 41
1.0
 50
0.0
 71
     0
 42
0.2
  3
txt.shx
  4

  0
STYLE
  5
11F
100
AcDbSymbolTableRecord
100
AcDbTextStyleTableRecord
  2
_DIMENSION
 70
     0
 40
0.0
 41
1.0
 50
0.0
 71
     0
 42
0.2
  3
arial.ttf
  4

1001
ACAD
1000
Arial
1071
 50331647
  0
STYLE
  5
380
100
AcDbSymbolTableRecord
100
AcDbTextStyleTableRecord
  2
_GDT_CALLOUT
 70
     0
 40
0.0
 41
1.0
 50
0.0
 71
     0
 42
0.2
  3
arial.ttf
  4

1001
ACAD
1000
Arial
1071
 50331647
  0
STYLE
  5
3BD
100
AcDbSymbolTableRecord
100
AcDbTextStyleTableRecord
  2
_NORMAL
 70
     0
 40
0.0
 41
1.0
 50
0.0
 71
     0
 42
0.2
  3
arial.ttf
  4

1001
ACAD
1000
Arial
1071
 50331647
  0
ENDTAB
  0
TABLE
  2
VIEW
  5
6
100
AcDbSymbolTable
 70
     0
  0
ENDTAB
  0
TABLE
  2
UCS
  5
7
100
AcDbSymbolTable
 70
     0
  0
ENDTAB
  0
TABLE
  2
APPID
  5
9
100
AcDbSymbolTable
 70
     1
  0
APPID
  5
10
100
AcDbSymbolTableRecord
100
AcDbRegAppTableRecord
  2
ACAD
 70
    64
  0
ENDTAB
  0
TABLE
  2
DIMSTYLE
  5
A
100
AcDbSymbolTable
 70
     1
  0
DIMSTYLE
105
1D
100
AcDbSymbolTableRecord
100
AcDbDimStyleTableRecord
  2
STANDARD
 70
    64
  3

  4

  5

  6

  7

 40
1.0
 41
0.18
 42
0.0625
 43
0.38
 44
0.18
 45
0.0
 46
0.0
 47
0.0
 48
0.0
 71
     0
 72
     0
 73
     1
 74
     1
 75
     0
 76
     0
 77
     0
 78
     0
140
0.18
141
0.09
142
0.0
143
25.4
144
1.0
145
0.0
146
1.0
147
0.09
170
     0
171
     2
172
     0
173
     0
174
     0
175
     0
176
     0
177
     0
178
     0
270
     2
271
     4
272
     4
273
     2
274
     2
275
     0
280
     0
281
     0
282
     0
283
     1
284
     0
285
     0
286
     0
287
     3
288
     0
340
F
  0
ENDTAB
  0
TABLE
  2
BLOCK_RECORD
  5
1
100
AcDbSymbolTable
 70
    45
  0
BLOCK_RECORD
  5
18
100
AcDbSymbolTableRecord
100
AcDbBlockTableRecord
  2
*MODEL_SPACE
  0
BLOCK_RECORD
  5
15
100
AcDbSymbolTableRecord
100
AcDbBlockTableRecord
  2
*PAPER_SPACE
  0
BLOCK_RECORD
  5
8E
100
AcDbSymbolTableRecord
100
AcDbBlockTableRecord
  2
SHEET_19
  0
BLOCK_RECORD
  5
121
100
AcDbSymbolTableRecord
100
AcDbBlockTableRecord
  2
VERTICAL
  0
BLOCK_RECORD
  5
143
100
AcDbSymbolTableRecord
100
AcDbBlockTableRecord
  2
VERTICAL_57
  0
BLOCK_RECORD
  5
165
100
AcDbSymbolTableRecord
100
AcDbBlockTableRecord
  2
VERTICAL_58
  0
BLOCK_RECORD
  5
187
100
AcDbSymbolTableRecord
100
AcDbBlockTableRecord
  2
VERTICAL_59
  0
BLOCK_RECORD
  5
1A9
100
AcDbSymbolTableRecord
100
AcDbBlockTableRecord
  2
VERTICAL_60
  0
BLOCK_RECORD
  5
1CB
100
AcDbSymbolTableRecord
100
AcDbBlockTableRecord
  2
VERTICAL_61
  0
BLOCK_RECORD
  5
1ED
100
AcDbSymbolTableRecord
100
AcDbBlockTableRecord
  2
VERTICAL_62
  0
BLOCK_RECORD
  5
20F
100
AcDbSymbolTableRecord
100
AcDbBlockTableRecord
  2
HORIZONTAL
  0
BLOCK_RECORD
  5
231
100
AcDbSymbolTableRecord
100
AcDbBlockTableRecord
  2
HORIZONTAL_64
  0
BLOCK_RECORD
  5
253
100
AcDbSymbolTableRecord
100
AcDbBlockTableRecord
  2
HORIZONTAL_65
  0
BLOCK_RECORD
  5
275
100
AcDbSymbolTableRecord
100
AcDbBlockTableRecord
  2
HORIZONTAL_66
  0
BLOCK_RECORD
  5
297
100
AcDbSymbolTableRecord
100
AcDbBlockTableRecord
  2
HORIZONTAL_67
  0
BLOCK_RECORD
  5
2B9
100
AcDbSymbolTableRecord
100
AcDbBlockTableRecord
  2
HORIZONTAL_68
  0
BLOCK_RECORD
  5
2DB
100
AcDbSymbolTableRecord
100
AcDbBlockTableRecord
  2
VERTICAL_69
  0
BLOCK_RECORD
  5
2FD
100
AcDbSymbolTableRecord
100
AcDbBlockTableRecord
  2
VERTICAL_70
  0
BLOCK_RECORD
  5
31F
100
AcDbSymbolTableRecord
100
AcDbBlockTableRecord
  2
HORIZONTAL_71
  0
BLOCK_RECORD
  5
345
100
AcDbSymbolTableRecord
100
AcDbBlockTableRecord
  2
HORIZONTAL_72
  0
BLOCK_RECORD
  5
367
100
AcDbSymbolTableRecord
100
AcDbBlockTableRecord
  2
VERTICAL_74
  0
BLOCK_RECORD
  5
383
100
AcDbSymbolTableRecord
100
AcDbBlockTableRecord
  2
BOX_CALLOUT
  0
BLOCK_RECORD
  5
397
100
AcDbSymbolTableRecord
100
AcDbBlockTableRecord
  2
BOX_CALLOUT_76
  0
BLOCK_RECORD
  5
3B3
100
AcDbSymbolTableRecord
100
AcDbBlockTableRecord
  2
HORIZONTAL_77
  0
BLOCK_RECORD
  5
3C1
100
AcDbSymbolTableRecord
100
AcDbBlockTableRecord
  2
SHEET_81
  0
BLOCK_RECORD
  5
3D6
100
AcDbSymbolTableRecord
100
AcDbBlockTableRecord
  2
BOX_CALLOUT_82
  0
BLOCK_RECORD
  5
3EA
100
AcDbSymbolTableRecord
100
AcDbBlockTableRecord
  2
BOX_CALLOUT_84
  0
BLOCK_RECORD
  5
417
100
AcDbSymbolTableRecord
100
AcDbBlockTableRecord
  2
BOX_CALLOUT_87
  0
BLOCK_RECORD
  5
422
100
AcDbSymbolTableRecord
100
AcDbBlockTableRecord
  2
FILLET
  0
BLOCK_RECORD
  5
42C
100
AcDbSymbolTableRecord
100
AcDbBlockTableRecord
  2
FILLET_212
  0
BLOCK_RECORD
  5
436
100
AcDbSymbolTableRecord
100
AcDbBlockTableRecord
  2
FILLET_213
  0
BLOCK_RECORD
  5
440
100
AcDbSymbolTableRecord
100
AcDbBlockTableRecord
  2
FILLET_214
  0
BLOCK_RECORD
  5
49E
100
AcDbSymbolTableRecord
100
AcDbBlockTableRecord
  2
SHEET_235
  0
BLOCK_RECORD
  5
4EA
100
AcDbSymbolTableRecord
100
AcDbBlockTableRecord
  2
SHEET_297
  0
BLOCK_RECORD
  5
536
100
AcDbSymbolTableRecord
100
AcDbBlockTableRecord
  2
SHEET_298
  0
BLOCK_RECORD
  5
556
100
AcDbSymbolTableRecord
100
AcDbBlockTableRecord
  2
HORIZONTAL_73
  0
BLOCK_RECORD
  5
572
100
AcDbSymbolTableRecord
100
AcDbBlockTableRecord
  2
BOX_CALLOUT_299
  0
BLOCK_RECORD
  5
586
100
AcDbSymbolTableRecord
100
AcDbBlockTableRecord
  2
BOX_CALLOUT_300
  0
BLOCK_RECORD
  5
5BB
100
AcDbSymbolTableRecord
100
AcDbBlockTableRecord
  2
SHEET_311
  0
BLOCK_RECORD
  5
711
100
AcDbSymbolTableRecord
100
AcDbBlockTableRecord
  2
BOX_CALLOUT_43
  0
BLOCK_RECORD
  5
727
100
AcDbSymbolTableRecord
100
AcDbBlockTableRecord
  2
BOX_CALLOUT_44
  0
BLOCK_RECORD
  5
7A4
100
AcDbSymbolTableRecord
100
AcDbBlockTableRecord
  2
SHEET_4
  0
BLOCK_RECORD
  5
821
100
AcDbSymbolTableRecord
100
AcDbBlockTableRecord
  2
SHEET_170
  0
BLOCK_RECORD
  5
89E
100
AcDbSymbolTableRecord
100
AcDbBlockTableRecord
  2
SHEET_129
  0
BLOCK_RECORD
  5
91B
100
AcDbSymbolTableRecord
100
AcDbBlockTableRecord
  2
SHEET_88
  0
BLOCK_RECORD
  5
949
100
AcDbSymbolTableRecord
100
AcDbBlockTableRecord
  2
VERTICAL_126
  0
BLOCK_RECORD
  5
975
100
AcDbSymbolTableRecord
100
AcDbBlockTableRecord
  2
BOX_CALLOUT_132
  0
ENDTAB
  0
ENDSEC
  0
SECTION
  2
BLOCKS
  0
BLOCK
  5
19
100
AcDbEntity
  8
0
100
AcDbBlockBegin
  2
*MODEL_SPACE
 70
     0
 10
0.0
 20
0.0
 30
0.0
  3
*MODEL_SPACE
  1

  0
ENDBLK
  5
1A
100
AcDbEntity
  8
0
100
AcDbBlockEnd
  0
BLOCK
  5
16
100
AcDbEntity
 67
     1
  8
0
100
AcDbBlockBegin
  2
*PAPER_SPACE
 70
     0
 10
0.0
 20
0.0
 30
0.0
  3
*PAPER_SPACE
  1

  0
ENDBLK
  5
17
100
AcDbEntity
 67
     1
  8
0
100
AcDbBlockEnd
  0
BLOCK
  5
6D
100
AcDbEntity
  8
0
100
AcDbBlockBegin
  2
SHEET_19
 70
    66
 10
9.4625
 20
4.28
 30
0.0
  3
SHEET_19
  1

  0
POLYLINE
  5
6E
100
AcDbEntity
  8
0
  6
CONTINUOUS
 62
     7
100
AcDb2dPolyline
 66
     1
 10
0.0
 20
0.0
 30
0.0
  0
VERTEX
  5
6F
100
AcDbEntity
  8
0
  6
CONTINUOUS
 62
     7
100
AcDbVertex
100
AcDb2dVertex
 10
8.7625
 20
5.315
 30
0.0
  0
VERTEX
  5
70
100
AcDbEntity
  8
0
  6
CONTINUOUS
 62
     7
100
AcDbVertex
100
AcDb2dVertex
 10
8.7625
 20
3.245
 30
0.0
  0
SEQEND
  5
71
100
AcDbEntity
  8
0
  6
CONTINUOUS
 62
     7
  0
POLYLINE
  5
72
100
AcDbEntity
  8
0
  6
CONTINUOUS
 62
     7
100
AcDb2dPolyline
 66
     1
 10
0.0
 20
0.0
 30
0.0
  0
VERTEX
  5
73
100
AcDbEntity
  8
0
  6
CONTINUOUS
 62
     7
100
AcDbVertex
100
AcDb2dVertex
 10
8.7625
 20
5.315
 30
0.0
  0
VERTEX
  5
74
100
AcDbEntity
  8
0
  6
CONTINUOUS
 62
     7
100
AcDbVertex
100
AcDb2dVertex
 10
9.7625
 20
5.315
 30
0.0
  0
SEQEND
  5
75
100
AcDbEntity
  8
0
  6
CONTINUOUS
 62
     7
  0
POLYLINE
  5
76
100
AcDbEntity
  8
0
  6
CONTINUOUS
 62
     7
100
AcDb2dPolyline
 66
     1
 10
0.0
 20
0.0
 30
0.0
  0
VERTEX
  5
77
100
AcDbEntity
  8
0
  6
CONTINUOUS
 62
     7
100
AcDbVertex
100
AcDb2dVertex
 10
8.7625
 20
3.245
 30
0.0
  0
VERTEX
  5
78
100
AcDbEntity
  8
0
  6
CONTINUOUS
 62
     7
100
AcDbVertex
100
AcDb2dVertex
 10
9.7625
 20
3.245
 30
0.0
  0
SEQEND
  5
79
100
AcDbEntity
  8
0
  6
CONTINUOUS
 62
     7
  0
POLYLINE
  5
7A
100
AcDbEntity
  8
0
  6
CONTINUOUS
 62
     7
100
AcDb2dPolyline
 66
     1
 10
0.0
 20
0.0
 30
0.0
  0
VERTEX
  5
7B
100
AcDbEntity
  8
0
  6
CONTINUOUS
 62
     7
100
AcDbVertex
100
AcDb2dVertex
 10
9.7625
 20
3.58
 30
0.0
  0
VERTEX
  5
7C
100
AcDbEntity
  8
0
  6
CONTINUOUS
 62
     7
100
AcDbVertex
100
AcDb2dVertex
 10
9.7625
 20
3.245
 30
0.0
  0
SEQEND
  5
7D
100
AcDbEntity
  8
0
  6
CONTINUOUS
 62
     7
  0
POLYLINE
  5
7E
100
AcDbEntity
  8
0
  6
CONTINUOUS
 62
     7
100
AcDb2dPolyline
 66
     1
 10
0.0
 20
0.0
 30
0.0
  0
VERTEX
  5
7F
100
AcDbEntity
  8
0
  6
CONTINUOUS
 62
     7
100
AcDbVertex
100
AcDb2dVertex
 10
9.7625
 20
5.315
 30
0.0
  0
VERTEX
  5
80
100
AcDbEntity
  8
0
  6
CONTINUOUS
 62
     7
100
AcDbVertex
100
AcDb2dVertex
 10
9.7625
 20
4.98
 30
0.0
  0
SEQEND
  5
81
100
AcDbEntity
  8
0
  6
CONTINUOUS
 62
     7
  0
POLYLINE
  5
82
100
AcDbEntity
  8
0
  6
CONTINUOUS
 62
     7
100
AcDb2dPolyline
 66
     1
 10
0.0
 20
0.0
 30
0.0
  0
VERTEX
  5
83
100
AcDbEntity
  8
0
  6
CONTINUOUS
 62
     7
100
AcDbVertex
100
AcDb2dVertex
 10
9.7625
 20
3.58
 30
0.0
  0
VERTEX
  5
84
100
AcDbEntity
  8
0
  6
CONTINUOUS
 62
     7
100
AcDbVertex
100
AcDb2dVertex
 10
10.1625
 20
3.58
 30
0.0
  0
SEQEND
  5
85
100
AcDbEntity
  8
0
  6
CONTINUOUS
 62
     7
  0
POLYLINE
  5
86
100
AcDbEntity
  8
0
  6
CONTINUOUS
 62
     7
100
AcDb2dPolyline
 66
     1
 10
0.0
 20
0.0
 30
0.0
  0
VERTEX
  5
87
100
AcDbEntity
  8
0
  6
CONTINUOUS
 62
     7
100
AcDbVertex
100
AcDb2dVertex
 10
9.7625
 20
4.98
 30
0.0
  0
VERTEX
  5
88
100
AcDbEntity
  8
0
  6
CONTINUOUS
 62
     7
100
AcDbVertex
100
AcDb2dVertex
 10
10.1625
 20
4.98
 30
0.0
  0
SEQEND
  5
89
100
AcDbEntity
  8
0
  6
CONTINUOUS
 62
     7
  0
POLYLINE
  5
8A
100
AcDbEntity
  8
0
  6
CONTINUOUS
 62
     7
100
AcDb2dPolyline
 66
     1
 10
0.0
 20
0.0
 30
0.0
  0
VERTEX
  5
8B
100
AcDbEntity
  8
0
  6
CONTINUOUS
 62
     7
100
AcDbVertex
100
AcDb2dVertex
 10
10.1625
 20
4.98
 30
0.0
  0
VERTEX
  5
8C
100
AcDbEntity
  8
0
  6
CONTINUOUS
 62
     7
100
AcDbVertex
100
AcDb2dVertex
 10
10.1625
 20
3.58
 30
0.0
  0
SEQEND
  5
8D
100
AcDbEntity
  8
0
  6
CONTINUOUS
 62
     7
  0
ENDBLK
  5
8F
100
AcDbEntity
  8
0
100
AcDbBlockEnd
  0
BLOCK
  5
106
100
AcDbEntity
  8
0
100
AcDbBlockBegin
  2
VERTICAL
 70
    66
 10
9.95
 20
2.1
 30
0.0
  3
VERTICAL
  1

  0
ATTDEF
  5
108
100
AcDbEntity
  8
DIMENSIONS
100
AcDbText
 10
9.95
 20
2.85
 30
0.0
 40
0.25
  1
User.LPrecVal
100
AcDbAttributeDefinition
  3
Choose the displayed precision for the dimension.
  2
PRECISION
 70
     1
  0
ATTDEF
  5
109
100
AcDbEntity
  8
DIMENSIONS
100
AcDbText
 10
9.95
 20
2.475
 30
0.0
 40
0.25
  1
User.LUnitsVal
100
AcDbAttributeDefinition
  3
Choose the units for the dimension.
  2
UNITS
 70
     1
  0
ATTDEF
  5
10A
100
AcDbEntity
  8
DIMENSIONS
100
AcDbText
 10
9.95
 20
2.1
 30
0.0
 40
0.25
  1
User.ShowUnitsVal
100
AcDbAttributeDefinition
  3
Choose whether or not to display unit abbreviations.
  2
UNITSDISPLAY
 70
     1
  0
ATTDEF
  5
10B
100
AcDbEntity
  8
DIMENSIONS
100
AcDbText
 10
9.95
 20
1.725
 30
0.0
 40
0.25
  1
Both
100
AcDbAttributeDefinition
  3
Choose which extension lines are visible.
  2
EXTENSIONLINES
 70
     1
  0
ATTDEF
  5
10C
100
AcDbEntity
  8
DIMENSIONS
100
AcDbText
 10
9.95
 20
1.35
 30
0.0
 40
0.25
  1
90 deg.
100
AcDbAttributeDefinition
  3
Choose the angle at which the dimension line is rotated.
  2
ANGLE
 70
     1
  0
POLYLINE
  5
10D
100
AcDbEntity
  8
DIMENSIONS
  6
CONTINUOUS
 62
     7
100
AcDb2dPolyline
 66
     1
 10
0.0
 20
0.0
 30
0.0
 70
     1
  0
VERTEX
  5
10E
100
AcDbEntity
  8
DIMENSIONS
  6
CONTINUOUS
 62
     7
100
AcDbVertex
100
AcDb2dVertex
 10
10.486111
 20
2.1
 30
0.0
  0
VERTEX
  5
10F
100
AcDbEntity
  8
DIMENSIONS
  6
CONTINUOUS
 62
     7
100
AcDbVertex
100
AcDb2dVertex
 10
10.005556
 20
2.1
 30
0.0
  0
SEQEND
  5
110
100
AcDbEntity
  8
DIMENSIONS
  6
CONTINUOUS
 62
     7
  0
POLYLINE
  5
111
100
AcDbEntity
  8
DIMENSIONS
  6
CONTINUOUS
 62
     7
100
AcDb2dPolyline
 66
     1
 10
0.0
 20
0.0
 30
0.0
 70
     1
  0
VERTEX
  5
112
100
AcDbEntity
  8
DIMENSIONS
  6
CONTINUOUS
 62
     7
100
AcDbVertex
100
AcDb2dVertex
 10
10.486111
 20
6.45
 30
0.0
  0
VERTEX
  5
113
100
AcDbEntity
  8
DIMENSIONS
  6
CONTINUOUS
 62
     7
100
AcDbVertex
100
AcDb2dVertex
 10
10.005556
 20
6.45
 30
0.0
  0
SEQEND
  5
114
100
AcDbEntity
  8
DIMENSIONS
  6
CONTINUOUS
 62
     7
  0
SOLID
  5
115
100
AcDbEntity
  8
DIMENSIONS
100
AcDbTrace
 10
10.375
 20
2.1
 30
0.0
 11
10.346667
 21
2.185
 31
0.0
 12
10.403333
 22
2.185
 32
0.0
 13
10.403333
 23
2.185
 33
0.0
  0
POLYLINE
  5
116
100
AcDbEntity
  8
DIMENSIONS
  6
CONTINUOUS
 62
     7
100
AcDb2dPolyline
 66
     1
 10
0.0
 20
0.0
 30
0.0
  0
VERTEX
  5
117
100
AcDbEntity
  8
DIMENSIONS
  6
CONTINUOUS
 62
     7
100
AcDbVertex
100
AcDb2dVertex
 10
10.375
 20
4.275
 30
0.0
  0
VERTEX
  5
118
100
AcDbEntity
  8
DIMENSIONS
  6
CONTINUOUS
 62
     7
100
AcDbVertex
100
AcDb2dVertex
 10
10.375
 20
2.1
 30
0.0
  0
SEQEND
  5
119
100
AcDbEntity
  8
DIMENSIONS
  6
CONTINUOUS
 62
     7
  0
SOLID
  5
11A
100
AcDbEntity
  8
DIMENSIONS
100
AcDbTrace
 10
10.375
 20
6.45
 30
0.0
 11
10.403333
 21
6.365
 31
0.0
 12
10.346667
 22
6.365
 32
0.0
 13
10.346667
 23
6.365
 33
0.0
  0
POLYLINE
  5
11B
100
AcDbEntity
  8
DIMENSIONS
  6
CONTINUOUS
 62
     7
100
AcDb2dPolyline
 66
     1
 10
0.0
 20
0.0
 30
0.0
  0
VERTEX
  5
11C
100
AcDbEntity
  8
DIMENSIONS
  6
CONTINUOUS
 62
     7
100
AcDbVertex
100
AcDb2dVertex
 10
10.375
 20
4.275
 30
0.0
  0
VERTEX
  5
11D
100
AcDbEntity
  8
DIMENSIONS
  6
CONTINUOUS
 62
     7
100
AcDbVertex
100
AcDb2dVertex
 10
10.375
 20
6.45
 30
0.0
  0
SEQEND
  5
11E
100
AcDbEntity
  8
DIMENSIONS
  6
CONTINUOUS
 62
     7
  0
TEXT
  5
120
100
AcDbEntity
  8
DIMENSIONS
 62
     7
100
AcDbText
 10
10.206019
 20
4.233333
 30
0.0
 40
0.111111
  1
4.35
  7
_DIMENSION
 72
     1
 11
10.375
 21
4.275
 31
0.0
100
AcDbText
 73
     2
  0
ENDBLK
  5
122
100
AcDbEntity
  8
0
100
AcDbBlockEnd
  0
BLOCK
  5
12A
100
AcDbEntity
  8
0
100
AcDbBlockBegin
  2
VERTICAL_57
 70
    66
 10
2.825
 20
5.46
 30
0.0
  3
VERTICAL_57
  1

  0
ATTDEF
  5
12B
100
AcDbEntity
  8
DIMENSIONS
100
AcDbText
 10
2.825
 20
6.21
 30
0.0
 40
0.25
  1
User.LPrecVal
100
AcDbAttributeDefinition
  3
Choose the displayed precision for the dimension.
  2
PRECISION
 70
     1
  0
ATTDEF
  5
12C
100
AcDbEntity
  8
DIMENSIONS
100
AcDbText
 10
2.825
 20
5.835
 30
0.0
 40
0.25
  1
User.LUnitsVal
100
AcDbAttributeDefinition
  3
Choose the units for the dimension.
  2
UNITS
 70
     1
  0
ATTDEF
  5
12D
100
AcDbEntity
  8
DIMENSIONS
100
AcDbText
 10
2.825
 20
5.46
 30
0.0
 40
0.25
  1
User.ShowUnitsVal
100
AcDbAttributeDefinition
  3
Choose whether or not to display unit abbreviations.
  2
UNITSDISPLAY
 70
     1
  0
ATTDEF
  5
12E
100
AcDbEntity
  8
DIMENSIONS
100
AcDbText
 10
2.825
 20
5.085
 30
0.0
 40
0.25
  1
Both
100
AcDbAttributeDefinition
  3
Choose which extension lines are visible.
  2
EXTENSIONLINES
 70
     1
  0
ATTDEF
  5
12F
100
AcDbEntity
  8
DIMENSIONS
100
AcDbText
 10
2.825
 20
4.71
 30
0.0
 40
0.25
  1
90 deg.
100
AcDbAttributeDefinition
  3
Choose the angle at which the dimension line is rotated.
  2
ANGLE
 70
     1
  0
POLYLINE
  5
130
100
AcDbEntity
  8
DIMENSIONS
  6
CONTINUOUS
 62
     7
100
AcDb2dPolyline
 66
     1
 10
0.0
 20
0.0
 30
0.0
 70
     1
  0
VERTEX
  5
131
100
AcDbEntity
  8
DIMENSIONS
  6
CONTINUOUS
 62
     7
100
AcDbVertex
100
AcDb2dVertex
 10
2.463889
 20
5.46
 30
0.0
  0
VERTEX
  5
132
100
AcDbEntity
  8
DIMENSIONS
  6
CONTINUOUS
 62
     7
100
AcDbVertex
100
AcDb2dVertex
 10
2.769444
 20
5.46
 30
0.0
  0
SEQEND
  5
133
100
AcDbEntity
  8
DIMENSIONS
  6
CONTINUOUS
 62
     7
  0
POLYLINE
  5
134
100
AcDbEntity
  8
DIMENSIONS
  6
CONTINUOUS
 62
     7
100
AcDb2dPolyline
 66
     1
 10
0.0
 20
0.0
 30
0.0
 70
     1
  0
VERTEX
  5
135
100
AcDbEntity
  8
DIMENSIONS
  6
CONTINUOUS
 62
     7
100
AcDbVertex
100
AcDb2dVertex
 10
2.463889
 20
6.46
 30
0.0
  0
VERTEX
  5
136
100
AcDbEntity
  8
DIMENSIONS
  6
CONTINUOUS
 62
     7
100
AcDbVertex
100
AcDb2dVertex
 10
2.769444
 20
6.46
 30
0.0
  0
SEQEND
  5
137
100
AcDbEntity
  8
DIMENSIONS
  6
CONTINUOUS
 62
     7
  0
SOLID
  5
138
100
AcDbEntity
  8
DIMENSIONS
100
AcDbTrace
 10
2.575
 20
5.46
 30
0.0
 11
2.546667
 21
5.545
 31
0.0
 12
2.603333
 22
5.545
 32
0.0
 13
2.603333
 23
5.545
 33
0.0
  0
POLYLINE
  5
139
100
AcDbEntity
  8
DIMENSIONS
  6
CONTINUOUS
 62
     7
100
AcDb2dPolyline
 66
     1
 10
0.0
 20
0.0
 30
0.0
  0
VERTEX
  5
13A
100
AcDbEntity
  8
DIMENSIONS
  6
CONTINUOUS
 62
     7
100
AcDbVertex
100
AcDb2dVertex
 10
2.575
 20
5.96
 30
0.0
  0
VERTEX
  5
13B
100
AcDbEntity
  8
DIMENSIONS
  6
CONTINUOUS
 62
     7
100
AcDbVertex
100
AcDb2dVertex
 10
2.575
 20
5.46
 30
0.0
  0
SEQEND
  5
13C
100
AcDbEntity
  8
DIMENSIONS
  6
CONTINUOUS
 62
     7
  0
SOLID
  5
13D
100
AcDbEntity
  8
DIMENSIONS
100
AcDbTrace
 10
2.575
 20
6.46
 30
0.0
 11
2.603333
 21
6.375
 31
0.0
 12
2.546667
 22
6.375
 32
0.0
 13
2.546667
 23
6.375
 33
0.0
  0
POLYLINE
  5
13E
100
AcDbEntity
  8
DIMENSIONS
  6
CONTINUOUS
 62
     7
100
AcDb2dPolyline
 66
     1
 10
0.0
 20
0.0
 30
0.0
  0
VERTEX
  5
13F
100
AcDbEntity
  8
DIMENSIONS
  6
CONTINUOUS
 62
     7
100
AcDbVertex
100
AcDb2dVertex
 10
2.575
 20
5.96
 30
0.0
  0
VERTEX
  5
140
100
AcDbEntity
  8
DIMENSIONS
  6
CONTINUOUS
 62
     7
100
AcDbVertex
100
AcDb2dVertex
 10
2.575
 20
6.46
 30
0.0
  0
SEQEND
  5
141
100
AcDbEntity
  8
DIMENSIONS
  6
CONTINUOUS
 62
     7
  0
TEXT
  5
142
100
AcDbEntity
  8
DIMENSIONS
 62
     7
100
AcDbText
 10
2.416435
 20
5.918333
 30
0.0
 40
0.111111
  1
1.00
  7
_DIMENSION
 72
     1
 11
2.575
 21
5.96
 31
0.0
100
AcDbText
 73
     2
  0
ENDBLK
  5
144
100
AcDbEntity
  8
0
100
AcDbBlockEnd
  0
BLOCK
  5
14C
100
AcDbEntity
  8
0
100
AcDbBlockBegin
  2
VERTICAL_58
 70
    66
 10
2.825
 20
2.1
 30
0.0
  3
VERTICAL_58
  1

  0
ATTDEF
  5
14D
100
AcDbEntity
  8
DIMENSIONS
100
AcDbText
 10
2.825
 20
2.85
 30
0.0
 40
0.25
  1
User.LPrecVal
100
AcDbAttributeDefinition
  3
Choose the displayed precision for the dimension.
  2
PRECISION
 70
     1
  0
ATTDEF
  5
14E
100
AcDbEntity
  8
DIMENSIONS
100
AcDbText
 10
2.825
 20
2.475
 30
0.0
 40
0.25
  1
User.LUnitsVal
100
AcDbAttributeDefinition
  3
Choose the units for the dimension.
  2
UNITS
 70
     1
  0
ATTDEF
  5
14F
100
AcDbEntity
  8
DIMENSIONS
100
AcDbText
 10
2.825
 20
2.1
 30
0.0
 40
0.25
  1
User.ShowUnitsVal
100
AcDbAttributeDefinition
  3
Choose whether or not to display unit abbreviations.
  2
UNITSDISPLAY
 70
     1
  0
ATTDEF
  5
150
100
AcDbEntity
  8
DIMENSIONS
100
AcDbText
 10
2.825
 20
1.725
 30
0.0
 40
0.25
  1
Both
100
AcDbAttributeDefinition
  3
Choose which extension lines are visible.
  2
EXTENSIONLINES
 70
     1
  0
ATTDEF
  5
151
100
AcDbEntity
  8
DIMENSIONS
100
AcDbText
 10
2.825
 20
1.35
 30
0.0
 40
0.25
  1
90 deg.
100
AcDbAttributeDefinition
  3
Choose the angle at which the dimension line is rotated.
  2
ANGLE
 70
     1
  0
POLYLINE
  5
152
100
AcDbEntity
  8
DIMENSIONS
  6
CONTINUOUS
 62
     7
100
AcDb2dPolyline
 66
     1
 10
0.0
 20
0.0
 30
0.0
 70
     1
  0
VERTEX
  5
153
100
AcDbEntity
  8
DIMENSIONS
  6
CONTINUOUS
 62
     7
100
AcDbVertex
100
AcDb2dVertex
 10
2.463889
 20
2.1
 30
0.0
  0
VERTEX
  5
154
100
AcDbEntity
  8
DIMENSIONS
  6
CONTINUOUS
 62
     7
100
AcDbVertex
100
AcDb2dVertex
 10
2.769444
 20
2.1
 30
0.0
  0
SEQEND
  5
155
100
AcDbEntity
  8
DIMENSIONS
  6
CONTINUOUS
 62
     7
  0
POLYLINE
  5
156
100
AcDbEntity
  8
DIMENSIONS
  6
CONTINUOUS
 62
     7
100
AcDb2dPolyline
 66
     1
 10
0.0
 20
0.0
 30
0.0
 70
     1
  0
VERTEX
  5
157
100
AcDbEntity
  8
DIMENSIONS
  6
CONTINUOUS
 62
     7
100
AcDbVertex
100
AcDb2dVertex
 10
2.463889
 20
2.35
 30
0.0
  0
VERTEX
  5
158
100
AcDbEntity
  8
DIMENSIONS
  6
CONTINUOUS
 62
     7
100
AcDbVertex
100
AcDb2dVertex
 10
2.769444
 20
2.35
 30
0.0
  0
SEQEND
  5
159
100
AcDbEntity
  8
DIMENSIONS
  6
CONTINUOUS
 62
     7
  0
SOLID
  5
15A
100
AcDbEntity
  8
DIMENSIONS
100
AcDbTrace
 10
2.575
 20
2.1
 30
0.0
 11
2.603333
 21
2.015
 31
0.0
 12
2.546667
 22
2.015
 32
0.0
 13
2.546667
 23
2.015
 33
0.0
  0
POLYLINE
  5
15B
100
AcDbEntity
  8
DIMENSIONS
  6
CONTINUOUS
 62
     7
100
AcDb2dPolyline
 66
     1
 10
0.0
 20
0.0
 30
0.0
  0
VERTEX
  5
15C
100
AcDbEntity
  8
DIMENSIONS
  6
CONTINUOUS
 62
     7
100
AcDbVertex
100
AcDb2dVertex
 10
2.575
 20
1.9334
 30
0.0
  0
VERTEX
  5
15D
100
AcDbEntity
  8
DIMENSIONS
  6
CONTINUOUS
 62
     7
100
AcDbVertex
100
AcDb2dVertex
 10
2.575
 20
2.1
 30
0.0
  0
SEQEND
  5
15E
100
AcDbEntity
  8
DIMENSIONS
  6
CONTINUOUS
 62
     7
  0
SOLID
  5
15F
100
AcDbEntity
  8
DIMENSIONS
100
AcDbTrace
 10
2.575
 20
2.35
 30
0.0
 11
2.546667
 21
2.435
 31
0.0
 12
2.603333
 22
2.435
 32
0.0
 13
2.603333
 23
2.435
 33
0.0
  0
POLYLINE
  5
160
100
AcDbEntity
  8
DIMENSIONS
  6
CONTINUOUS
 62
     7
100
AcDb2dPolyline
 66
     1
 10
0.0
 20
0.0
 30
0.0
  0
VERTEX
  5
161
100
AcDbEntity
  8
DIMENSIONS
  6
CONTINUOUS
 62
     7
100
AcDbVertex
100
AcDb2dVertex
 10
2.575
 20
2.5166
 30
0.0
  0
VERTEX
  5
162
100
AcDbEntity
  8
DIMENSIONS
  6
CONTINUOUS
 62
     7
100
AcDbVertex
100
AcDb2dVertex
 10
2.575
 20
2.35
 30
0.0
  0
SEQEND
  5
163
100
AcDbEntity
  8
DIMENSIONS
  6
CONTINUOUS
 62
     7
  0
TEXT
  5
164
100
AcDbEntity
  8
DIMENSIONS
 62
     7
100
AcDbText
 10
2.406019
 20
2.183333
 30
0.0
 40
0.111111
  1
0.25
  7
_DIMENSION
 72
     1
 11
2.575
 21
2.225
 31
0.0
100
AcDbText
 73
     2
  0
ENDBLK
  5
166
100
AcDbEntity
  8
0
100
AcDbBlockEnd
  0
BLOCK
  5
16E
100
AcDbEntity
  8
0
100
AcDbBlockBegin
  2
VERTICAL_59
 70
    66
 10
2.825
 20
2.6
 30
0.0
  3
VERTICAL_59
  1

  0
ATTDEF
  5
16F
100
AcDbEntity
  8
DIMENSIONS
100
AcDbText
 10
2.825
 20
3.35
 30
0.0
 40
0.25
  1
User.LPrecVal
100
AcDbAttributeDefinition
  3
Choose the displayed precision for the dimension.
  2
PRECISION
 70
     1
  0
ATTDEF
  5
170
100
AcDbEntity
  8
DIMENSIONS
100
AcDbText
 10
2.825
 20
2.975
 30
0.0
 40
0.25
  1
User.LUnitsVal
100
AcDbAttributeDefinition
  3
Choose the units for the dimension.
  2
UNITS
 70
     1
  0
ATTDEF
  5
171
100
AcDbEntity
  8
DIMENSIONS
100
AcDbText
 10
2.825
 20
2.6
 30
0.0
 40
0.25
  1
User.ShowUnitsVal
100
AcDbAttributeDefinition
  3
Choose whether or not to display unit abbreviations.
  2
UNITSDISPLAY
 70
     1
  0
ATTDEF
  5
172
100
AcDbEntity
  8
DIMENSIONS
100
AcDbText
 10
2.825
 20
2.225
 30
0.0
 40
0.25
  1
Both
100
AcDbAttributeDefinition
  3
Choose which extension lines are visible.
  2
EXTENSIONLINES
 70
     1
  0
ATTDEF
  5
173
100
AcDbEntity
  8
DIMENSIONS
100
AcDbText
 10
2.825
 20
1.85
 30
0.0
 40
0.25
  1
90 deg.
100
AcDbAttributeDefinition
  3
Choose the angle at which the dimension line is rotated.
  2
ANGLE
 70
     1
  0
POLYLINE
  5
174
100
AcDbEntity
  8
DIMENSIONS
  6
CONTINUOUS
 62
     7
100
AcDb2dPolyline
 66
     1
 10
0.0
 20
0.0
 30
0.0
 70
     1
  0
VERTEX
  5
175
100
AcDbEntity
  8
DIMENSIONS
  6
CONTINUOUS
 62
     7
100
AcDbVertex
100
AcDb2dVertex
 10
2.463889
 20
2.6
 30
0.0
  0
VERTEX
  5
176
100
AcDbEntity
  8
DIMENSIONS
  6
CONTINUOUS
 62
     7
100
AcDbVertex
100
AcDb2dVertex
 10
2.769444
 20
2.6
 30
0.0
  0
SEQEND
  5
177
100
AcDbEntity
  8
DIMENSIONS
  6
CONTINUOUS
 62
     7
  0
POLYLINE
  5
178
100
AcDbEntity
  8
DIMENSIONS
  6
CONTINUOUS
 62
     7
100
AcDb2dPolyline
 66
     1
 10
0.0
 20
0.0
 30
0.0
 70
     1
  0
VERTEX
  5
179
100
AcDbEntity
  8
DIMENSIONS
  6
CONTINUOUS
 62
     7
100
AcDbVertex
100
AcDb2dVertex
 10
2.463889
 20
3.1
 30
0.0
  0
VERTEX
  5
17A
100
AcDbEntity
  8
DIMENSIONS
  6
CONTINUOUS
 62
     7
100
AcDbVertex
100
AcDb2dVertex
 10
2.769444
 20
3.1
 30
0.0
  0
SEQEND
  5
17B
100
AcDbEntity
  8
DIMENSIONS
  6
CONTINUOUS
 62
     7
  0
SOLID
  5
17C
100
AcDbEntity
  8
DIMENSIONS
100
AcDbTrace
 10
2.575
 20
2.6
 30
0.0
 11
2.546667
 21
2.685
 31
0.0
 12
2.603333
 22
2.685
 32
0.0
 13
2.603333
 23
2.685
 33
0.0
  0
POLYLINE
  5
17D
100
AcDbEntity
  8
DIMENSIONS
  6
CONTINUOUS
 62
     7
100
AcDb2dPolyline
 66
     1
 10
0.0
 20
0.0
 30
0.0
  0
VERTEX
  5
17E
100
AcDbEntity
  8
DIMENSIONS
  6
CONTINUOUS
 62
     7
100
AcDbVertex
100
AcDb2dVertex
 10
2.575
 20
2.85
 30
0.0
  0
VERTEX
  5
17F
100
AcDbEntity
  8
DIMENSIONS
  6
CONTINUOUS
 62
     7
100
AcDbVertex
100
AcDb2dVertex
 10
2.575
 20
2.6
 30
0.0
  0
SEQEND
  5
180
100
AcDbEntity
  8
DIMENSIONS
  6
CONTINUOUS
 62
     7
  0
SOLID
  5
181
100
AcDbEntity
  8
DIMENSIONS
100
AcDbTrace
 10
2.575
 20
3.1
 30
0.0
 11
2.603333
 21
3.015
 31
0.0
 12
2.546667
 22
3.015
 32
0.0
 13
2.546667
 23
3.015
 33
0.0
  0
POLYLINE
  5
182
100
AcDbEntity
  8
DIMENSIONS
  6
CONTINUOUS
 62
     7
100
AcDb2dPolyline
 66
     1
 10
0.0
 20
0.0
 30
0.0
  0
VERTEX
  5
183
100
AcDbEntity
  8
DIMENSIONS
  6
CONTINUOUS
 62
     7
100
AcDbVertex
100
AcDb2dVertex
 10
2.575
 20
2.85
 30
0.0
  0
VERTEX
  5
184
100
AcDbEntity
  8
DIMENSIONS
  6
CONTINUOUS
 62
     7
100
AcDbVertex
100
AcDb2dVertex
 10
2.575
 20
3.1
 30
0.0
  0
SEQEND
  5
185
100
AcDbEntity
  8
DIMENSIONS
  6
CONTINUOUS
 62
     7
  0
TEXT
  5
186
100
AcDbEntity
  8
DIMENSIONS
 62
     7
100
AcDbText
 10
2.406019
 20
2.808333
 30
0.0
 40
0.111111
  1
0.50
  7
_DIMENSION
 72
     1
 11
2.575
 21
2.85
 31
0.0
100
AcDbText
 73
     2
  0
ENDBLK
  5
188
100
AcDbEntity
  8
0
100
AcDbBlockEnd
  0
BLOCK
  5
190
100
AcDbEntity
  8
0
100
AcDbBlockBegin
  2
VERTICAL_60
 70
    66
 10
2.52
 20
3.25
 30
0.0
  3
VERTICAL_60
  1

  0
ATTDEF
  5
191
100
AcDbEntity
  8
DIMENSIONS
100
AcDbText
 10
2.52
 20
4.0
 30
0.0
 40
0.25
  1
User.LPrecVal
100
AcDbAttributeDefinition
  3
Choose the displayed precision for the dimension.
  2
PRECISION
 70
     1
  0
ATTDEF
  5
192
100
AcDbEntity
  8
DIMENSIONS
100
AcDbText
 10
2.52
 20
3.625
 30
0.0
 40
0.25
  1
User.LUnitsVal
100
AcDbAttributeDefinition
  3
Choose the units for the dimension.
  2
UNITS
 70
     1
  0
ATTDEF
  5
193
100
AcDbEntity
  8
DIMENSIONS
100
AcDbText
 10
2.52
 20
3.25
 30
0.0
 40
0.25
  1
User.ShowUnitsVal
100
AcDbAttributeDefinition
  3
Choose whether or not to display unit abbreviations.
  2
UNITSDISPLAY
 70
     1
  0
ATTDEF
  5
194
100
AcDbEntity
  8
DIMENSIONS
100
AcDbText
 10
2.52
 20
2.875
 30
0.0
 40
0.25
  1
Both
100
AcDbAttributeDefinition
  3
Choose which extension lines are visible.
  2
EXTENSIONLINES
 70
     1
  0
ATTDEF
  5
195
100
AcDbEntity
  8
DIMENSIONS
100
AcDbText
 10
2.52
 20
2.5
 30
0.0
 40
0.25
  1
90 deg.
100
AcDbAttributeDefinition
  3
Choose the angle at which the dimension line is rotated.
  2
ANGLE
 70
     1
  0
POLYLINE
  5
196
100
AcDbEntity
  8
DIMENSIONS
  6
CONTINUOUS
 62
     7
100
AcDb2dPolyline
 66
     1
 10
0.0
 20
0.0
 30
0.0
 70
     1
  0
VERTEX
  5
197
100
AcDbEntity
  8
DIMENSIONS
  6
CONTINUOUS
 62
     7
100
AcDbVertex
100
AcDb2dVertex
 10
2.158889
 20
3.25
 30
0.0
  0
VERTEX
  5
198
100
AcDbEntity
  8
DIMENSIONS
  6
CONTINUOUS
 62
     7
100
AcDbVertex
100
AcDb2dVertex
 10
2.464444
 20
3.25
 30
0.0
  0
SEQEND
  5
199
100
AcDbEntity
  8
DIMENSIONS
  6
CONTINUOUS
 62
     7
  0
POLYLINE
  5
19A
100
AcDbEntity
  8
DIMENSIONS
  6
CONTINUOUS
 62
     7
100
AcDb2dPolyline
 66
     1
 10
0.0
 20
0.0
 30
0.0
 70
     1
  0
VERTEX
  5
19B
100
AcDbEntity
  8
DIMENSIONS
  6
CONTINUOUS
 62
     7
100
AcDbVertex
100
AcDb2dVertex
 10
2.158889
 20
5.32
 30
0.0
  0
VERTEX
  5
19C
100
AcDbEntity
  8
DIMENSIONS
  6
CONTINUOUS
 62
     7
100
AcDbVertex
100
AcDb2dVertex
 10
2.464444
 20
5.32
 30
0.0
  0
SEQEND
  5
19D
100
AcDbEntity
  8
DIMENSIONS
  6
CONTINUOUS
 62
     7
  0
SOLID
  5
19E
100
AcDbEntity
  8
DIMENSIONS
100
AcDbTrace
 10
2.27
 20
3.25
 30
0.0
 11
2.241667
 21
3.335
 31
0.0
 12
2.298333
 22
3.335
 32
0.0
 13
2.298333
 23
3.335
 33
0.0
  0
POLYLINE
  5
19F
100
AcDbEntity
  8
DIMENSIONS
  6
CONTINUOUS
 62
     7
100
AcDb2dPolyline
 66
     1
 10
0.0
 20
0.0
 30
0.0
  0
VERTEX
  5
1A0
100
AcDbEntity
  8
DIMENSIONS
  6
CONTINUOUS
 62
     7
100
AcDbVertex
100
AcDb2dVertex
 10
2.27
 20
4.285
 30
0.0
  0
VERTEX
  5
1A1
100
AcDbEntity
  8
DIMENSIONS
  6
CONTINUOUS
 62
     7
100
AcDbVertex
100
AcDb2dVertex
 10
2.27
 20
3.25
 30
0.0
  0
SEQEND
  5
1A2
100
AcDbEntity
  8
DIMENSIONS
  6
CONTINUOUS
 62
     7
  0
SOLID
  5
1A3
100
AcDbEntity
  8
DIMENSIONS
100
AcDbTrace
 10
2.27
 20
5.32
 30
0.0
 11
2.298333
 21
5.235
 31
0.0
 12
2.241667
 22
5.235
 32
0.0
 13
2.241667
 23
5.235
 33
0.0
  0
POLYLINE
  5
1A4
100
AcDbEntity
  8
DIMENSIONS
  6
CONTINUOUS
 62
     7
100
AcDb2dPolyline
 66
     1
 10
0.0
 20
0.0
 30
0.0
  0
VERTEX
  5
1A5
100
AcDbEntity
  8
DIMENSIONS
  6
CONTINUOUS
 62
     7
100
AcDbVertex
100
AcDb2dVertex
 10
2.27
 20
4.285
 30
0.0
  0
VERTEX
  5
1A6
100
AcDbEntity
  8
DIMENSIONS
  6
CONTINUOUS
 62
     7
100
AcDbVertex
100
AcDb2dVertex
 10
2.27
 20
5.32
 30
0.0
  0
SEQEND
  5
1A7
100
AcDbEntity
  8
DIMENSIONS
  6
CONTINUOUS
 62
     7
  0
TEXT
  5
1A8
100
AcDbEntity
  8
DIMENSIONS
 62
     7
100
AcDbText
 10
2.101019
 20
4.243333
 30
0.0
 40
0.111111
  1
2.07
  7
_DIMENSION
 72
     1
 11
2.27
 21
4.285
 31
0.0
100
AcDbText
 73
     2
  0
ENDBLK
  5
1AA
100
AcDbEntity
  8
0
100
AcDbBlockEnd
  0
BLOCK
  5
1B2
100
AcDbEntity
  8
0
100
AcDbBlockBegin
  2
VERTICAL_61
 70
    66
 10
5.1
 20
3.11
 30
0.0
  3
VERTICAL_61
  1

  0
ATTDEF
  5
1B3
100
AcDbEntity
  8
DIMENSIONS
100
AcDbText
 10
5.1
 20
3.86
 30
0.0
 40
0.25
  1
User.LPrecVal
100
AcDbAttributeDefinition
  3
Choose the displayed precision for the dimension.
  2
PRECISION
 70
     1
  0
ATTDEF
  5
1B4
100
AcDbEntity
  8
DIMENSIONS
100
AcDbText
 10
5.1
 20
3.485
 30
0.0
 40
0.25
  1
User.LUnitsVal
100
AcDbAttributeDefinition
  3
Choose the units for the dimension.
  2
UNITS
 70
     1
  0
ATTDEF
  5
1B5
100
AcDbEntity
  8
DIMENSIONS
100
AcDbText
 10
5.1
 20
3.11
 30
0.0
 40
0.25
  1
User.ShowUnitsVal
100
AcDbAttributeDefinition
  3
Choose whether or not to display unit abbreviations.
  2
UNITSDISPLAY
 70
     1
  0
ATTDEF
  5
1B6
100
AcDbEntity
  8
DIMENSIONS
100
AcDbText
 10
5.1
 20
2.735
 30
0.0
 40
0.25
  1
Both
100
AcDbAttributeDefinition
  3
Choose which extension lines are visible.
  2
EXTENSIONLINES
 70
     1
  0
ATTDEF
  5
1B7
100
AcDbEntity
  8
DIMENSIONS
100
AcDbText
 10
5.1
 20
2.36
 30
0.0
 40
0.25
  1
90 deg.
100
AcDbAttributeDefinition
  3
Choose the angle at which the dimension line is rotated.
  2
ANGLE
 70
     1
  0
POLYLINE
  5
1B8
100
AcDbEntity
  8
DIMENSIONS
  6
CONTINUOUS
 62
     7
100
AcDb2dPolyline
 66
     1
 10
0.0
 20
0.0
 30
0.0
 70
     1
  0
VERTEX
  5
1B9
100
AcDbEntity
  8
DIMENSIONS
  6
CONTINUOUS
 62
     7
100
AcDbVertex
100
AcDb2dVertex
 10
4.738889
 20
3.11
 30
0.0
  0
VERTEX
  5
1BA
100
AcDbEntity
  8
DIMENSIONS
  6
CONTINUOUS
 62
     7
100
AcDbVertex
100
AcDb2dVertex
 10
5.044444
 20
3.11
 30
0.0
  0
SEQEND
  5
1BB
100
AcDbEntity
  8
DIMENSIONS
  6
CONTINUOUS
 62
     7
  0
POLYLINE
  5
1BC
100
AcDbEntity
  8
DIMENSIONS
  6
CONTINUOUS
 62
     7
100
AcDb2dPolyline
 66
     1
 10
0.0
 20
0.0
 30
0.0
 70
     1
  0
VERTEX
  5
1BD
100
AcDbEntity
  8
DIMENSIONS
  6
CONTINUOUS
 62
     7
100
AcDbVertex
100
AcDb2dVertex
 10
4.738889
 20
5.46
 30
0.0
  0
VERTEX
  5
1BE
100
AcDbEntity
  8
DIMENSIONS
  6
CONTINUOUS
 62
     7
100
AcDbVertex
100
AcDb2dVertex
 10
5.044444
 20
5.46
 30
0.0
  0
SEQEND
  5
1BF
100
AcDbEntity
  8
DIMENSIONS
  6
CONTINUOUS
 62
     7
  0
SOLID
  5
1C0
100
AcDbEntity
  8
DIMENSIONS
100
AcDbTrace
 10
4.85
 20
3.11
 30
0.0
 11
4.821667
 21
3.195
 31
0.0
 12
4.878333
 22
3.195
 32
0.0
 13
4.878333
 23
3.195
 33
0.0
  0
POLYLINE
  5
1C1
100
AcDbEntity
  8
DIMENSIONS
  6
CONTINUOUS
 62
     7
100
AcDb2dPolyline
 66
     1
 10
0.0
 20
0.0
 30
0.0
  0
VERTEX
  5
1C2
100
AcDbEntity
  8
DIMENSIONS
  6
CONTINUOUS
 62
     7
100
AcDbVertex
100
AcDb2dVertex
 10
4.85
 20
4.285
 30
0.0
  0
VERTEX
  5
1C3
100
AcDbEntity
  8
DIMENSIONS
  6
CONTINUOUS
 62
     7
100
AcDbVertex
100
AcDb2dVertex
 10
4.85
 20
3.11
 30
0.0
  0
SEQEND
  5
1C4
100
AcDbEntity
  8
DIMENSIONS
  6
CONTINUOUS
 62
     7
  0
SOLID
  5
1C5
100
AcDbEntity
  8
DIMENSIONS
100
AcDbTrace
 10
4.85
 20
5.46
 30
0.0
 11
4.878333
 21
5.375
 31
0.0
 12
4.821667
 22
5.375
 32
0.0
 13
4.821667
 23
5.375
 33
0.0
  0
POLYLINE
  5
1C6
100
AcDbEntity
  8
DIMENSIONS
  6
CONTINUOUS
 62
     7
100
AcDb2dPolyline
 66
     1
 10
0.0
 20
0.0
 30
0.0
  0
VERTEX
  5
1C7
100
AcDbEntity
  8
DIMENSIONS
  6
CONTINUOUS
 62
     7
100
AcDbVertex
100
AcDb2dVertex
 10
4.85
 20
4.285
 30
0.0
  0
VERTEX
  5
1C8
100
AcDbEntity
  8
DIMENSIONS
  6
CONTINUOUS
 62
     7
100
AcDbVertex
100
AcDb2dVertex
 10
4.85
 20
5.46
 30
0.0
  0
SEQEND
  5
1C9
100
AcDbEntity
  8
DIMENSIONS
  6
CONTINUOUS
 62
     7
  0
TEXT
  5
1CA
100
AcDbEntity
  8
DIMENSIONS
 62
     7
100
AcDbText
 10
4.681019
 20
4.243333
 30
0.0
 40
0.111111
  1
2.35
  7
_DIMENSION
 72
     1
 11
4.85
 21
4.285
 31
0.0
100
AcDbText
 73
     2
  0
ENDBLK
  5
1CC
100
AcDbEntity
  8
0
100
AcDbBlockEnd
  0
BLOCK
  5
1D4
100
AcDbEntity
  8
0
100
AcDbBlockBegin
  2
VERTICAL_62
 70
    66
 10
7.425
 20
3.1
 30
0.0
  3
VERTICAL_62
  1

  0
ATTDEF
  5
1D5
100
AcDbEntity
  8
DIMENSIONS
100
AcDbText
 10
7.425
 20
3.85
 30
0.0
 40
0.25
  1
0.000
100
AcDbAttributeDefinition
  3
Choose the displayed precision for the dimension.
  2
PRECISION
 70
     1
  0
ATTDEF
  5
1D6
100
AcDbEntity
  8
DIMENSIONS
100
AcDbText
 10
7.425
 20
3.475
 30
0.0
 40
0.25
  1
User.LUnitsVal
100
AcDbAttributeDefinition
  3
Choose the units for the dimension.
  2
UNITS
 70
     1
  0
ATTDEF
  5
1D7
100
AcDbEntity
  8
DIMENSIONS
100
AcDbText
 10
7.425
 20
3.1
 30
0.0
 40
0.25
  1
User.ShowUnitsVal
100
AcDbAttributeDefinition
  3
Choose whether or not to display unit abbreviations.
  2
UNITSDISPLAY
 70
     1
  0
ATTDEF
  5
1D8
100
AcDbEntity
  8
DIMENSIONS
100
AcDbText
 10
7.425
 20
2.725
 30
0.0
 40
0.25
  1
Both
100
AcDbAttributeDefinition
  3
Choose which extension lines are visible.
  2
EXTENSIONLINES
 70
     1
  0
ATTDEF
  5
1D9
100
AcDbEntity
  8
DIMENSIONS
100
AcDbText
 10
7.425
 20
2.35
 30
0.0
 40
0.25
  1
90 deg.
100
AcDbAttributeDefinition
  3
Choose the angle at which the dimension line is rotated.
  2
ANGLE
 70
     1
  0
POLYLINE
  5
1DA
100
AcDbEntity
  8
DIMENSIONS
  6
CONTINUOUS
 62
     7
100
AcDb2dPolyline
 66
     1
 10
0.0
 20
0.0
 30
0.0
 70
     1
  0
VERTEX
  5
1DB
100
AcDbEntity
  8
DIMENSIONS
  6
CONTINUOUS
 62
     7
100
AcDbVertex
100
AcDb2dVertex
 10
7.063889
 20
3.1
 30
0.0
  0
VERTEX
  5
1DC
100
AcDbEntity
  8
DIMENSIONS
  6
CONTINUOUS
 62
     7
100
AcDbVertex
100
AcDb2dVertex
 10
7.369444
 20
3.1
 30
0.0
  0
SEQEND
  5
1DD
100
AcDbEntity
  8
DIMENSIONS
  6
CONTINUOUS
 62
     7
  0
POLYLINE
  5
1DE
100
AcDbEntity
  8
DIMENSIONS
  6
CONTINUOUS
 62
     7
100
AcDb2dPolyline
 66
     1
 10
0.0
 20
0.0
 30
0.0
 70
     1
  0
VERTEX
  5
1DF
100
AcDbEntity
  8
DIMENSIONS
  6
CONTINUOUS
 62
     7
100
AcDbVertex
100
AcDb2dVertex
 10
7.063889
 20
3.24
 30
0.0
  0
VERTEX
  5
1E0
100
AcDbEntity
  8
DIMENSIONS
  6
CONTINUOUS
 62
     7
100
AcDbVertex
100
AcDb2dVertex
 10
7.369444
 20
3.24
 30
0.0
  0
SEQEND
  5
1E1
100
AcDbEntity
  8
DIMENSIONS
  6
CONTINUOUS
 62
     7
  0
SOLID
  5
1E2
100
AcDbEntity
  8
DIMENSIONS
100
AcDbTrace
 10
7.175
 20
3.1
 30
0.0
 11
7.203333
 21
3.015
 31
0.0
 12
7.146667
 22
3.015
 32
0.0
 13
7.146667
 23
3.015
 33
0.0
  0
POLYLINE
  5
1E3
100
AcDbEntity
  8
DIMENSIONS
  6
CONTINUOUS
 62
     7
100
AcDb2dPolyline
 66
     1
 10
0.0
 20
0.0
 30
0.0
  0
VERTEX
  5
1E4
100
AcDbEntity
  8
DIMENSIONS
  6
CONTINUOUS
 62
     7
100
AcDbVertex
100
AcDb2dVertex
 10
7.175
 20
2.9334
 30
0.0
  0
VERTEX
  5
1E5
100
AcDbEntity
  8
DIMENSIONS
  6
CONTINUOUS
 62
     7
100
AcDbVertex
100
AcDb2dVertex
 10
7.175
 20
3.1
 30
0.0
  0
SEQEND
  5
1E6
100
AcDbEntity
  8
DIMENSIONS
  6
CONTINUOUS
 62
     7
  0
SOLID
  5
1E7
100
AcDbEntity
  8
DIMENSIONS
100
AcDbTrace
 10
7.175
 20
3.24
 30
0.0
 11
7.146667
 21
3.325
 31
0.0
 12
7.203333
 22
3.325
 32
0.0
 13
7.203333
 23
3.325
 33
0.0
  0
POLYLINE
  5
1E8
100
AcDbEntity
  8
DIMENSIONS
  6
CONTINUOUS
 62
     7
100
AcDb2dPolyline
 66
     1
 10
0.0
 20
0.0
 30
0.0
  0
VERTEX
  5
1E9
100
AcDbEntity
  8
DIMENSIONS
  6
CONTINUOUS
 62
     7
100
AcDbVertex
100
AcDb2dVertex
 10
7.175
 20
3.4066
 30
0.0
  0
VERTEX
  5
1EA
100
AcDbEntity
  8
DIMENSIONS
  6
CONTINUOUS
 62
     7
100
AcDbVertex
100
AcDb2dVertex
 10
7.175
 20
3.24
 30
0.0
  0
SEQEND
  5
1EB
100
AcDbEntity
  8
DIMENSIONS
  6
CONTINUOUS
 62
     7
  0
TEXT
  5
1EC
100
AcDbEntity
  8
DIMENSIONS
 62
     7
100
AcDbText
 10
6.963773
 20
3.128333
 30
0.0
 40
0.111111
  1
0.140
  7
_DIMENSION
 72
     1
 11
7.175
 21
3.17
 31
0.0
100
AcDbText
 73
     2
  0
ENDBLK
  5
1EE
100
AcDbEntity
  8
0
100
AcDbBlockEnd
  0
BLOCK
  5
1F6
100
AcDbEntity
  8
0
100
AcDbBlockBegin
  2
HORIZONTAL
 70
    66
 10
3.275
 20
5.55
 30
0.0
  3
HORIZONTAL
  1

  0
ATTDEF
  5
1F7
100
AcDbEntity
  8
DIMENSIONS
100
AcDbText
 10
3.275
 20
6.3
 30
0.0
 40
0.25
  1
User.LPrecVal
100
AcDbAttributeDefinition
  3
Choose the displayed precision for the dimension.
  2
PRECISION
 70
     1
  0
ATTDEF
  5
1F8
100
AcDbEntity
  8
DIMENSIONS
100
AcDbText
 10
3.275
 20
5.925
 30
0.0
 40
0.25
  1
User.LUnitsVal
100
AcDbAttributeDefinition
  3
Choose the units for the dimension.
  2
UNITS
 70
     1
  0
ATTDEF
  5
1F9
100
AcDbEntity
  8
DIMENSIONS
100
AcDbText
 10
3.275
 20
5.55
 30
0.0
 40
0.25
  1
User.ShowUnitsVal
100
AcDbAttributeDefinition
  3
Choose whether or not to display unit abbreviations.
  2
UNITSDISPLAY
 70
     1
  0
ATTDEF
  5
1FA
100
AcDbEntity
  8
DIMENSIONS
100
AcDbText
 10
3.275
 20
5.175
 30
0.0
 40
0.25
  1
Both
100
AcDbAttributeDefinition
  3
Choose which extension lines are visible.
  2
EXTENSIONLINES
 70
     1
  0
ATTDEF
  5
1FB
100
AcDbEntity
  8
DIMENSIONS
100
AcDbText
 10
3.275
 20
4.8
 30
0.0
 40
0.25
  1
0 deg.
100
AcDbAttributeDefinition
  3
Choose the angle at which the dimension line is rotated.
  2
ANGLE
 70
     1
  0
POLYLINE
  5
1FC
100
AcDbEntity
  8
DIMENSIONS
  6
CONTINUOUS
 62
     7
100
AcDb2dPolyline
 66
     1
 10
0.0
 20
0.0
 30
0.0
 70
     1
  0
VERTEX
  5
1FD
100
AcDbEntity
  8
DIMENSIONS
  6
CONTINUOUS
 62
     7
100
AcDbVertex
100
AcDb2dVertex
 10
3.275
 20
5.911111
 30
0.0
  0
VERTEX
  5
1FE
100
AcDbEntity
  8
DIMENSIONS
  6
CONTINUOUS
 62
     7
100
AcDbVertex
100
AcDb2dVertex
 10
3.275
 20
5.605556
 30
0.0
  0
SEQEND
  5
1FF
100
AcDbEntity
  8
DIMENSIONS
  6
CONTINUOUS
 62
     7
  0
POLYLINE
  5
200
100
AcDbEntity
  8
DIMENSIONS
  6
CONTINUOUS
 62
     7
100
AcDb2dPolyline
 66
     1
 10
0.0
 20
0.0
 30
0.0
 70
     1
  0
VERTEX
  5
201
100
AcDbEntity
  8
DIMENSIONS
  6
CONTINUOUS
 62
     7
100
AcDbVertex
100
AcDb2dVertex
 10
8.775
 20
5.911111
 30
0.0
  0
VERTEX
  5
202
100
AcDbEntity
  8
DIMENSIONS
  6
CONTINUOUS
 62
     7
100
AcDbVertex
100
AcDb2dVertex
 10
8.775
 20
5.605556
 30
0.0
  0
SEQEND
  5
203
100
AcDbEntity
  8
DIMENSIONS
  6
CONTINUOUS
 62
     7
  0
SOLID
  5
204
100
AcDbEntity
  8
DIMENSIONS
100
AcDbTrace
 10
3.275
 20
5.8
 30
0.0
 11
3.36
 21
5.828333
 31
0.0
 12
3.36
 22
5.771667
 32
0.0
 13
3.36
 23
5.771667
 33
0.0
  0
POLYLINE
  5
205
100
AcDbEntity
  8
DIMENSIONS
  6
CONTINUOUS
 62
     7
100
AcDb2dPolyline
 66
     1
 10
0.0
 20
0.0
 30
0.0
  0
VERTEX
  5
206
100
AcDbEntity
  8
DIMENSIONS
  6
CONTINUOUS
 62
     7
100
AcDbVertex
100
AcDb2dVertex
 10
6.025
 20
5.8
 30
0.0
  0
VERTEX
  5
207
100
AcDbEntity
  8
DIMENSIONS
  6
CONTINUOUS
 62
     7
100
AcDbVertex
100
AcDb2dVertex
 10
3.275
 20
5.8
 30
0.0
  0
SEQEND
  5
208
100
AcDbEntity
  8
DIMENSIONS
  6
CONTINUOUS
 62
     7
  0
SOLID
  5
209
100
AcDbEntity
  8
DIMENSIONS
100
AcDbTrace
 10
8.775
 20
5.8
 30
0.0
 11
8.69
 21
5.771667
 31
0.0
 12
8.69
 22
5.828333
 32
0.0
 13
8.69
 23
5.828333
 33
0.0
  0
POLYLINE
  5
20A
100
AcDbEntity
  8
DIMENSIONS
  6
CONTINUOUS
 62
     7
100
AcDb2dPolyline
 66
     1
 10
0.0
 20
0.0
 30
0.0
  0
VERTEX
  5
20B
100
AcDbEntity
  8
DIMENSIONS
  6
CONTINUOUS
 62
     7
100
AcDbVertex
100
AcDb2dVertex
 10
6.025
 20
5.8
 30
0.0
  0
VERTEX
  5
20C
100
AcDbEntity
  8
DIMENSIONS
  6
CONTINUOUS
 62
     7
100
AcDbVertex
100
AcDb2dVertex
 10
8.775
 20
5.8
 30
0.0
  0
SEQEND
  5
20D
100
AcDbEntity
  8
DIMENSIONS
  6
CONTINUOUS
 62
     7
  0
TEXT
  5
20E
100
AcDbEntity
  8
DIMENSIONS
 62
     7
100
AcDbText
 10
5.856019
 20
5.758333
 30
0.0
 40
0.111111
  1
5.50
  7
_DIMENSION
 72
     1
 11
6.025
 21
5.8
 31
0.0
100
AcDbText
 73
     2
  0
ENDBLK
  5
210
100
AcDbEntity
  8
0
100
AcDbBlockEnd
  0
BLOCK
  5
218
100
AcDbEntity
  8
0
100
AcDbBlockBegin
  2
HORIZONTAL_64
 70
    66
 10
3.025
 20
5.55
 30
0.0
  3
HORIZONTAL_64
  1

  0
ATTDEF
  5
219
100
AcDbEntity
  8
DIMENSIONS
100
AcDbText
 10
3.025
 20
6.3
 30
0.0
 40
0.25
  1
User.LPrecVal
100
AcDbAttributeDefinition
  3
Choose the displayed precision for the dimension.
  2
PRECISION
 70
     1
  0
ATTDEF
  5
21A
100
AcDbEntity
  8
DIMENSIONS
100
AcDbText
 10
3.025
 20
5.925
 30
0.0
 40
0.25
  1
User.LUnitsVal
100
AcDbAttributeDefinition
  3
Choose the units for the dimension.
  2
UNITS
 70
     1
  0
ATTDEF
  5
21B
100
AcDbEntity
  8
DIMENSIONS
100
AcDbText
 10
3.025
 20
5.55
 30
0.0
 40
0.25
  1
User.ShowUnitsVal
100
AcDbAttributeDefinition
  3
Choose whether or not to display unit abbreviations.
  2
UNITSDISPLAY
 70
     1
  0
ATTDEF
  5
21C
100
AcDbEntity
  8
DIMENSIONS
100
AcDbText
 10
3.025
 20
5.175
 30
0.0
 40
0.25
  1
Both
100
AcDbAttributeDefinition
  3
Choose which extension lines are visible.
  2
EXTENSIONLINES
 70
     1
  0
ATTDEF
  5
21D
100
AcDbEntity
  8
DIMENSIONS
100
AcDbText
 10
3.025
 20
4.8
 30
0.0
 40
0.25
  1
0 deg.
100
AcDbAttributeDefinition
  3
Choose the angle at which the dimension line is rotated.
  2
ANGLE
 70
     1
  0
POLYLINE
  5
21E
100
AcDbEntity
  8
DIMENSIONS
  6
CONTINUOUS
 62
     7
100
AcDb2dPolyline
 66
     1
 10
0.0
 20
0.0
 30
0.0
 70
     1
  0
VERTEX
  5
21F
100
AcDbEntity
  8
DIMENSIONS
  6
CONTINUOUS
 62
     7
100
AcDbVertex
100
AcDb2dVertex
 10
3.025
 20
5.911111
 30
0.0
  0
VERTEX
  5
220
100
AcDbEntity
  8
DIMENSIONS
  6
CONTINUOUS
 62
     7
100
AcDbVertex
100
AcDb2dVertex
 10
3.025
 20
5.605556
 30
0.0
  0
SEQEND
  5
221
100
AcDbEntity
  8
DIMENSIONS
  6
CONTINUOUS
 62
     7
  0
POLYLINE
  5
222
100
AcDbEntity
  8
DIMENSIONS
  6
CONTINUOUS
 62
     7
100
AcDb2dPolyline
 66
     1
 10
0.0
 20
0.0
 30
0.0
 70
     1
  0
VERTEX
  5
223
100
AcDbEntity
  8
DIMENSIONS
  6
CONTINUOUS
 62
     7
100
AcDbVertex
100
AcDb2dVertex
 10
3.275
 20
5.911111
 30
0.0
  0
VERTEX
  5
224
100
AcDbEntity
  8
DIMENSIONS
  6
CONTINUOUS
 62
     7
100
AcDbVertex
100
AcDb2dVertex
 10
3.275
 20
5.605556
 30
0.0
  0
SEQEND
  5
225
100
AcDbEntity
  8
DIMENSIONS
  6
CONTINUOUS
 62
     7
  0
SOLID
  5
226
100
AcDbEntity
  8
DIMENSIONS
100
AcDbTrace
 10
3.025
 20
5.8
 30
0.0
 11
2.94
 21
5.771667
 31
0.0
 12
2.94
 22
5.828333
 32
0.0
 13
2.94
 23
5.828333
 33
0.0
  0
POLYLINE
  5
227
100
AcDbEntity
  8
DIMENSIONS
  6
CONTINUOUS
 62
     7
100
AcDb2dPolyline
 66
     1
 10
0.0
 20
0.0
 30
0.0
  0
VERTEX
  5
228
100
AcDbEntity
  8
DIMENSIONS
  6
CONTINUOUS
 62
     7
100
AcDbVertex
100
AcDb2dVertex
 10
2.8584
 20
5.8
 30
0.0
  0
VERTEX
  5
229
100
AcDbEntity
  8
DIMENSIONS
  6
CONTINUOUS
 62
     7
100
AcDbVertex
100
AcDb2dVertex
 10
3.025
 20
5.8
 30
0.0
  0
SEQEND
  5
22A
100
AcDbEntity
  8
DIMENSIONS
  6
CONTINUOUS
 62
     7
  0
SOLID
  5
22B
100
AcDbEntity
  8
DIMENSIONS
100
AcDbTrace
 10
3.275
 20
5.8
 30
0.0
 11
3.36
 21
5.828333
 31
0.0
 12
3.36
 22
5.771667
 32
0.0
 13
3.36
 23
5.771667
 33
0.0
  0
POLYLINE
  5
22C
100
AcDbEntity
  8
DIMENSIONS
  6
CONTINUOUS
 62
     7
100
AcDb2dPolyline
 66
     1
 10
0.0
 20
0.0
 30
0.0
  0
VERTEX
  5
22D
100
AcDbEntity
  8
DIMENSIONS
  6
CONTINUOUS
 62
     7
100
AcDbVertex
100
AcDb2dVertex
 10
3.4416
 20
5.8
 30
0.0
  0
VERTEX
  5
22E
100
AcDbEntity
  8
DIMENSIONS
  6
CONTINUOUS
 62
     7
100
AcDbVertex
100
AcDb2dVertex
 10
3.275
 20
5.8
 30
0.0
  0
SEQEND
  5
22F
100
AcDbEntity
  8
DIMENSIONS
  6
CONTINUOUS
 62
     7
  0
TEXT
  5
230
100
AcDbEntity
  8
DIMENSIONS
 62
     7
100
AcDbText
 10
2.981019
 20
5.758333
 30
0.0
 40
0.111111
  1
0.25
  7
_DIMENSION
 72
     1
 11
3.15
 21
5.8
 31
0.0
100
AcDbText
 73
     2
  0
ENDBLK
  5
232
100
AcDbEntity
  8
0
100
AcDbBlockEnd
  0
BLOCK
  5
23A
100
AcDbEntity
  8
0
100
AcDbBlockBegin
  2
HORIZONTAL_65
 70
    66
 10
8.775
 20
5.55
 30
0.0
  3
HORIZONTAL_65
  1

  0
ATTDEF
  5
23B
100
AcDbEntity
  8
DIMENSIONS
100
AcDbText
 10
8.775
 20
6.3
 30
0.0
 40
0.25
  1
User.LPrecVal
100
AcDbAttributeDefinition
  3
Choose the displayed precision for the dimension.
  2
PRECISION
 70
     1
  0
ATTDEF
  5
23C
100
AcDbEntity
  8
DIMENSIONS
100
AcDbText
 10
8.775
 20
5.925
 30
0.0
 40
0.25
  1
User.LUnitsVal
100
AcDbAttributeDefinition
  3
Choose the units for the dimension.
  2
UNITS
 70
     1
  0
ATTDEF
  5
23D
100
AcDbEntity
  8
DIMENSIONS
100
AcDbText
 10
8.775
 20
5.55
 30
0.0
 40
0.25
  1
User.ShowUnitsVal
100
AcDbAttributeDefinition
  3
Choose whether or not to display unit abbreviations.
  2
UNITSDISPLAY
 70
     1
  0
ATTDEF
  5
23E
100
AcDbEntity
  8
DIMENSIONS
100
AcDbText
 10
8.775
 20
5.175
 30
0.0
 40
0.25
  1
Both
100
AcDbAttributeDefinition
  3
Choose which extension lines are visible.
  2
EXTENSIONLINES
 70
     1
  0
ATTDEF
  5
23F
100
AcDbEntity
  8
DIMENSIONS
100
AcDbText
 10
8.775
 20
4.8
 30
0.0
 40
0.25
  1
0 deg.
100
AcDbAttributeDefinition
  3
Choose the angle at which the dimension line is rotated.
  2
ANGLE
 70
     1
  0
POLYLINE
  5
240
100
AcDbEntity
  8
DIMENSIONS
  6
CONTINUOUS
 62
     7
100
AcDb2dPolyline
 66
     1
 10
0.0
 20
0.0
 30
0.0
 70
     1
  0
VERTEX
  5
241
100
AcDbEntity
  8
DIMENSIONS
  6
CONTINUOUS
 62
     7
100
AcDbVertex
100
AcDb2dVertex
 10
8.775
 20
5.911111
 30
0.0
  0
VERTEX
  5
242
100
AcDbEntity
  8
DIMENSIONS
  6
CONTINUOUS
 62
     7
100
AcDbVertex
100
AcDb2dVertex
 10
8.775
 20
5.605556
 30
0.0
  0
SEQEND
  5
243
100
AcDbEntity
  8
DIMENSIONS
  6
CONTINUOUS
 62
     7
  0
POLYLINE
  5
244
100
AcDbEntity
  8
DIMENSIONS
  6
CONTINUOUS
 62
     7
100
AcDb2dPolyline
 66
     1
 10
0.0
 20
0.0
 30
0.0
 70
     1
  0
VERTEX
  5
245
100
AcDbEntity
  8
DIMENSIONS
  6
CONTINUOUS
 62
     7
100
AcDbVertex
100
AcDb2dVertex
 10
9.025
 20
5.911111
 30
0.0
  0
VERTEX
  5
246
100
AcDbEntity
  8
DIMENSIONS
  6
CONTINUOUS
 62
     7
100
AcDbVertex
100
AcDb2dVertex
 10
9.025
 20
5.605556
 30
0.0
  0
SEQEND
  5
247
100
AcDbEntity
  8
DIMENSIONS
  6
CONTINUOUS
 62
     7
  0
SOLID
  5
248
100
AcDbEntity
  8
DIMENSIONS
100
AcDbTrace
 10
8.775
 20
5.8
 30
0.0
 11
8.69
 21
5.771667
 31
0.0
 12
8.69
 22
5.828333
 32
0.0
 13
8.69
 23
5.828333
 33
0.0
  0
POLYLINE
  5
249
100
AcDbEntity
  8
DIMENSIONS
  6
CONTINUOUS
 62
     7
100
AcDb2dPolyline
 66
     1
 10
0.0
 20
0.0
 30
0.0
  0
VERTEX
  5
24A
100
AcDbEntity
  8
DIMENSIONS
  6
CONTINUOUS
 62
     7
100
AcDbVertex
100
AcDb2dVertex
 10
8.6084
 20
5.8
 30
0.0
  0
VERTEX
  5
24B
100
AcDbEntity
  8
DIMENSIONS
  6
CONTINUOUS
 62
     7
100
AcDbVertex
100
AcDb2dVertex
 10
8.775
 20
5.8
 30
0.0
  0
SEQEND
  5
24C
100
AcDbEntity
  8
DIMENSIONS
  6
CONTINUOUS
 62
     7
  0
SOLID
  5
24D
100
AcDbEntity
  8
DIMENSIONS
100
AcDbTrace
 10
9.025
 20
5.8
 30
0.0
 11
9.11
 21
5.828333
 31
0.0
 12
9.11
 22
5.771667
 32
0.0
 13
9.11
 23
5.771667
 33
0.0
  0
POLYLINE
  5
24E
100
AcDbEntity
  8
DIMENSIONS
  6
CONTINUOUS
 62
     7
100
AcDb2dPolyline
 66
     1
 10
0.0
 20
0.0
 30
0.0
  0
VERTEX
  5
24F
100
AcDbEntity
  8
DIMENSIONS
  6
CONTINUOUS
 62
     7
100
AcDbVertex
100
AcDb2dVertex
 10
9.1916
 20
5.8
 30
0.0
  0
VERTEX
  5
250
100
AcDbEntity
  8
DIMENSIONS
  6
CONTINUOUS
 62
     7
100
AcDbVertex
100
AcDb2dVertex
 10
9.025
 20
5.8
 30
0.0
  0
SEQEND
  5
251
100
AcDbEntity
  8
DIMENSIONS
  6
CONTINUOUS
 62
     7
  0
TEXT
  5
252
100
AcDbEntity
  8
DIMENSIONS
 62
     7
100
AcDbText
 10
8.731019
 20
5.758333
 30
0.0
 40
0.111111
  1
0.25
  7
_DIMENSION
 72
     1
 11
8.9
 21
5.8
 31
0.0
100
AcDbText
 73
     2
  0
ENDBLK
  5
254
100
AcDbEntity
  8
0
100
AcDbBlockEnd
  0
BLOCK
  5
25C
100
AcDbEntity
  8
0
100
AcDbBlockBegin
  2
HORIZONTAL_66
 70
    66
 10
8.745
 20
6.9
 30
0.0
  3
HORIZONTAL_66
  1

  0
ATTDEF
  5
25D
100
AcDbEntity
  8
DIMENSIONS
100
AcDbText
 10
8.745
 20
7.65
 30
0.0
 40
0.25
  1
User.LPrecVal
100
AcDbAttributeDefinition
  3
Choose the displayed precision for the dimension.
  2
PRECISION
 70
     1
  0
ATTDEF
  5
25E
100
AcDbEntity
  8
DIMENSIONS
100
AcDbText
 10
8.745
 20
7.275
 30
0.0
 40
0.25
  1
User.LUnitsVal
100
AcDbAttributeDefinition
  3
Choose the units for the dimension.
  2
UNITS
 70
     1
  0
ATTDEF
  5
25F
100
AcDbEntity
  8
DIMENSIONS
100
AcDbText
 10
8.745
 20
6.9
 30
0.0
 40
0.25
  1
User.ShowUnitsVal
100
AcDbAttributeDefinition
  3
Choose whether or not to display unit abbreviations.
  2
UNITSDISPLAY
 70
     1
  0
ATTDEF
  5
260
100
AcDbEntity
  8
DIMENSIONS
100
AcDbText
 10
8.745
 20
6.525
 30
0.0
 40
0.25
  1
Both
100
AcDbAttributeDefinition
  3
Choose which extension lines are visible.
  2
EXTENSIONLINES
 70
     1
  0
ATTDEF
  5
261
100
AcDbEntity
  8
DIMENSIONS
100
AcDbText
 10
8.745
 20
6.15
 30
0.0
 40
0.25
  1
0 deg.
100
AcDbAttributeDefinition
  3
Choose the angle at which the dimension line is rotated.
  2
ANGLE
 70
     1
  0
POLYLINE
  5
262
100
AcDbEntity
  8
DIMENSIONS
  6
CONTINUOUS
 62
     7
100
AcDb2dPolyline
 66
     1
 10
0.0
 20
0.0
 30
0.0
 70
     1
  0
VERTEX
  5
263
100
AcDbEntity
  8
DIMENSIONS
  6
CONTINUOUS
 62
     7
100
AcDbVertex
100
AcDb2dVertex
 10
8.745
 20
7.311111
 30
0.0
  0
VERTEX
  5
264
100
AcDbEntity
  8
DIMENSIONS
  6
CONTINUOUS
 62
     7
100
AcDbVertex
100
AcDb2dVertex
 10
8.745
 20
6.955556
 30
0.0
  0
SEQEND
  5
265
100
AcDbEntity
  8
DIMENSIONS
  6
CONTINUOUS
 62
     7
  0
POLYLINE
  5
266
100
AcDbEntity
  8
DIMENSIONS
  6
CONTINUOUS
 62
     7
100
AcDb2dPolyline
 66
     1
 10
0.0
 20
0.0
 30
0.0
 70
     1
  0
VERTEX
  5
267
100
AcDbEntity
  8
DIMENSIONS
  6
CONTINUOUS
 62
     7
100
AcDbVertex
100
AcDb2dVertex
 10
9.745
 20
7.311111
 30
0.0
  0
VERTEX
  5
268
100
AcDbEntity
  8
DIMENSIONS
  6
CONTINUOUS
 62
     7
100
AcDbVertex
100
AcDb2dVertex
 10
9.745
 20
6.955556
 30
0.0
  0
SEQEND
  5
269
100
AcDbEntity
  8
DIMENSIONS
  6
CONTINUOUS
 62
     7
  0
SOLID
  5
26A
100
AcDbEntity
  8
DIMENSIONS
100
AcDbTrace
 10
8.745
 20
7.2
 30
0.0
 11
8.83
 21
7.228333
 31
0.0
 12
8.83
 22
7.171667
 32
0.0
 13
8.83
 23
7.171667
 33
0.0
  0
POLYLINE
  5
26B
100
AcDbEntity
  8
DIMENSIONS
  6
CONTINUOUS
 62
     7
100
AcDb2dPolyline
 66
     1
 10
0.0
 20
0.0
 30
0.0
  0
VERTEX
  5
26C
100
AcDbEntity
  8
DIMENSIONS
  6
CONTINUOUS
 62
     7
100
AcDbVertex
100
AcDb2dVertex
 10
9.245
 20
7.2
 30
0.0
  0
VERTEX
  5
26D
100
AcDbEntity
  8
DIMENSIONS
  6
CONTINUOUS
 62
     7
100
AcDbVertex
100
AcDb2dVertex
 10
8.745
 20
7.2
 30
0.0
  0
SEQEND
  5
26E
100
AcDbEntity
  8
DIMENSIONS
  6
CONTINUOUS
 62
     7
  0
SOLID
  5
26F
100
AcDbEntity
  8
DIMENSIONS
100
AcDbTrace
 10
9.745
 20
7.2
 30
0.0
 11
9.66
 21
7.171667
 31
0.0
 12
9.66
 22
7.228333
 32
0.0
 13
9.66
 23
7.228333
 33
0.0
  0
POLYLINE
  5
270
100
AcDbEntity
  8
DIMENSIONS
  6
CONTINUOUS
 62
     7
100
AcDb2dPolyline
 66
     1
 10
0.0
 20
0.0
 30
0.0
  0
VERTEX
  5
271
100
AcDbEntity
  8
DIMENSIONS
  6
CONTINUOUS
 62
     7
100
AcDbVertex
100
AcDb2dVertex
 10
9.245
 20
7.2
 30
0.0
  0
VERTEX
  5
272
100
AcDbEntity
  8
DIMENSIONS
  6
CONTINUOUS
 62
     7
100
AcDbVertex
100
AcDb2dVertex
 10
9.745
 20
7.2
 30
0.0
  0
SEQEND
  5
273
100
AcDbEntity
  8
DIMENSIONS
  6
CONTINUOUS
 62
     7
  0
TEXT
  5
274
100
AcDbEntity
  8
DIMENSIONS
 62
     7
100
AcDbText
 10
9.086435
 20
7.165896
 30
0.0
 40
0.111111
  1
1.00
  7
_DIMENSION
 72
     1
 11
9.245
 21
7.207563
 31
0.0
100
AcDbText
 73
     2
  0
ENDBLK
  5
276
100
AcDbEntity
  8
0
100
AcDbBlockEnd
  0
BLOCK
  5
27E
100
AcDbEntity
  8
0
100
AcDbBlockBegin
  2
HORIZONTAL_67
 70
    66
 10
9.775
 20
2.1
 30
0.0
  3
HORIZONTAL_67
  1

  0
ATTDEF
  5
27F
100
AcDbEntity
  8
DIMENSIONS
100
AcDbText
 10
9.775
 20
2.85
 30
0.0
 40
0.25
  1
0.0000
100
AcDbAttributeDefinition
  3
Choose the displayed precision for the dimension.
  2
PRECISION
 70
     1
  0
ATTDEF
  5
280
100
AcDbEntity
  8
DIMENSIONS
100
AcDbText
 10
9.775
 20
2.475
 30
0.0
 40
0.25
  1
User.LUnitsVal
100
AcDbAttributeDefinition
  3
Choose the units for the dimension.
  2
UNITS
 70
     1
  0
ATTDEF
  5
281
100
AcDbEntity
  8
DIMENSIONS
100
AcDbText
 10
9.775
 20
2.1
 30
0.0
 40
0.25
  1
User.ShowUnitsVal
100
AcDbAttributeDefinition
  3
Choose whether or not to display unit abbreviations.
  2
UNITSDISPLAY
 70
     1
  0
ATTDEF
  5
282
100
AcDbEntity
  8
DIMENSIONS
100
AcDbText
 10
9.775
 20
1.725
 30
0.0
 40
0.25
  1
Both
100
AcDbAttributeDefinition
  3
Choose which extension lines are visible.
  2
EXTENSIONLINES
 70
     1
  0
ATTDEF
  5
283
100
AcDbEntity
  8
DIMENSIONS
100
AcDbText
 10
9.775
 20
1.35
 30
0.0
 40
0.25
  1
0 deg.
100
AcDbAttributeDefinition
  3
Choose the angle at which the dimension line is rotated.
  2
ANGLE
 70
     1
  0
POLYLINE
  5
284
100
AcDbEntity
  8
DIMENSIONS
  6
CONTINUOUS
 62
     7
100
AcDb2dPolyline
 66
     1
 10
0.0
 20
0.0
 30
0.0
 70
     1
  0
VERTEX
  5
285
100
AcDbEntity
  8
DIMENSIONS
  6
CONTINUOUS
 62
     7
100
AcDbVertex
100
AcDb2dVertex
 10
9.775
 20
1.758889
 30
0.0
  0
VERTEX
  5
286
100
AcDbEntity
  8
DIMENSIONS
  6
CONTINUOUS
 62
     7
100
AcDbVertex
100
AcDb2dVertex
 10
9.775
 20
2.044444
 30
0.0
  0
SEQEND
  5
287
100
AcDbEntity
  8
DIMENSIONS
  6
CONTINUOUS
 62
     7
  0
POLYLINE
  5
288
100
AcDbEntity
  8
DIMENSIONS
  6
CONTINUOUS
 62
     7
100
AcDb2dPolyline
 66
     1
 10
0.0
 20
0.0
 30
0.0
 70
     1
  0
VERTEX
  5
289
100
AcDbEntity
  8
DIMENSIONS
  6
CONTINUOUS
 62
     7
100
AcDbVertex
100
AcDb2dVertex
 10
9.9625
 20
1.758889
 30
0.0
  0
VERTEX
  5
28A
100
AcDbEntity
  8
DIMENSIONS
  6
CONTINUOUS
 62
     7
100
AcDbVertex
100
AcDb2dVertex
 10
9.9625
 20
2.044444
 30
0.0
  0
SEQEND
  5
28B
100
AcDbEntity
  8
DIMENSIONS
  6
CONTINUOUS
 62
     7
  0
SOLID
  5
28C
100
AcDbEntity
  8
DIMENSIONS
100
AcDbTrace
 10
9.775
 20
1.87
 30
0.0
 11
9.69
 21
1.841667
 31
0.0
 12
9.69
 22
1.898333
 32
0.0
 13
9.69
 23
1.898333
 33
0.0
  0
POLYLINE
  5
28D
100
AcDbEntity
  8
DIMENSIONS
  6
CONTINUOUS
 62
     7
100
AcDb2dPolyline
 66
     1
 10
0.0
 20
0.0
 30
0.0
  0
VERTEX
  5
28E
100
AcDbEntity
  8
DIMENSIONS
  6
CONTINUOUS
 62
     7
100
AcDbVertex
100
AcDb2dVertex
 10
9.6084
 20
1.87
 30
0.0
  0
VERTEX
  5
28F
100
AcDbEntity
  8
DIMENSIONS
  6
CONTINUOUS
 62
     7
100
AcDbVertex
100
AcDb2dVertex
 10
9.775
 20
1.87
 30
0.0
  0
SEQEND
  5
290
100
AcDbEntity
  8
DIMENSIONS
  6
CONTINUOUS
 62
     7
  0
SOLID
  5
291
100
AcDbEntity
  8
DIMENSIONS
100
AcDbTrace
 10
9.9625
 20
1.87
 30
0.0
 11
10.0475
 21
1.898333
 31
0.0
 12
10.0475
 22
1.841667
 32
0.0
 13
10.0475
 23
1.841667
 33
0.0
  0
POLYLINE
  5
292
100
AcDbEntity
  8
DIMENSIONS
  6
CONTINUOUS
 62
     7
100
AcDb2dPolyline
 66
     1
 10
0.0
 20
0.0
 30
0.0
  0
VERTEX
  5
293
100
AcDbEntity
  8
DIMENSIONS
  6
CONTINUOUS
 62
     7
100
AcDbVertex
100
AcDb2dVertex
 10
10.1291
 20
1.87
 30
0.0
  0
VERTEX
  5
294
100
AcDbEntity
  8
DIMENSIONS
  6
CONTINUOUS
 62
     7
100
AcDbVertex
100
AcDb2dVertex
 10
9.9625
 20
1.87
 30
0.0
  0
SEQEND
  5
295
100
AcDbEntity
  8
DIMENSIONS
  6
CONTINUOUS
 62
     7
  0
TEXT
  5
296
100
AcDbEntity
  8
DIMENSIONS
 62
     7
100
AcDbText
 10
9.604861
 20
1.835896
 30
0.0
 40
0.111111
  1
0.1875
  7
_DIMENSION
 72
     1
 11
9.86875
 21
1.877563
 31
0.0
100
AcDbText
 73
     2
  0
ENDBLK
  5
298
100
AcDbEntity
  8
0
100
AcDbBlockEnd
  0
BLOCK
  5
2A0
100
AcDbEntity
  8
0
100
AcDbBlockBegin
  2
HORIZONTAL_68
 70
    66
 10
9.582143
 20
2.1
 30
0.0
  3
HORIZONTAL_68
  1

  0
ATTDEF
  5
2A1
100
AcDbEntity
  8
DIMENSIONS
100
AcDbText
 10
9.582143
 20
2.85
 30
0.0
 40
0.25
  1
0.0000
100
AcDbAttributeDefinition
  3
Choose the displayed precision for the dimension.
  2
PRECISION
 70
     1
  0
ATTDEF
  5
2A2
100
AcDbEntity
  8
DIMENSIONS
100
AcDbText
 10
9.582143
 20
2.475
 30
0.0
 40
0.25
  1
User.LUnitsVal
100
AcDbAttributeDefinition
  3
Choose the units for the dimension.
  2
UNITS
 70
     1
  0
ATTDEF
  5
2A3
100
AcDbEntity
  8
DIMENSIONS
100
AcDbText
 10
9.582143
 20
2.1
 30
0.0
 40
0.25
  1
User.ShowUnitsVal
100
AcDbAttributeDefinition
  3
Choose whether or not to display unit abbreviations.
  2
UNITSDISPLAY
 70
     1
  0
ATTDEF
  5
2A4
100
AcDbEntity
  8
DIMENSIONS
100
AcDbText
 10
9.582143
 20
1.725
 30
0.0
 40
0.25
  1
Both
100
AcDbAttributeDefinition
  3
Choose which extension lines are visible.
  2
EXTENSIONLINES
 70
     1
  0
ATTDEF
  5
2A5
100
AcDbEntity
  8
DIMENSIONS
100
AcDbText
 10
9.582143
 20
1.35
 30
0.0
 40
0.25
  1
0 deg.
100
AcDbAttributeDefinition
  3
Choose the angle at which the dimension line is rotated.
  2
ANGLE
 70
     1
  0
POLYLINE
  5
2A6
100
AcDbEntity
  8
DIMENSIONS
  6
CONTINUOUS
 62
     7
100
AcDb2dPolyline
 66
     1
 10
0.0
 20
0.0
 30
0.0
 70
     1
  0
VERTEX
  5
2A7
100
AcDbEntity
  8
DIMENSIONS
  6
CONTINUOUS
 62
     7
100
AcDbVertex
100
AcDb2dVertex
 10
9.582143
 20
1.388889
 30
0.0
  0
VERTEX
  5
2A8
100
AcDbEntity
  8
DIMENSIONS
  6
CONTINUOUS
 62
     7
100
AcDbVertex
100
AcDb2dVertex
 10
9.582143
 20
2.044444
 30
0.0
  0
SEQEND
  5
2A9
100
AcDbEntity
  8
DIMENSIONS
  6
CONTINUOUS
 62
     7
  0
POLYLINE
  5
2AA
100
AcDbEntity
  8
DIMENSIONS
  6
CONTINUOUS
 62
     7
100
AcDb2dPolyline
 66
     1
 10
0.0
 20
0.0
 30
0.0
 70
     1
  0
VERTEX
  5
2AB
100
AcDbEntity
  8
DIMENSIONS
  6
CONTINUOUS
 62
     7
100
AcDbVertex
100
AcDb2dVertex
 10
9.769643
 20
1.388889
 30
0.0
  0
VERTEX
  5
2AC
100
AcDbEntity
  8
DIMENSIONS
  6
CONTINUOUS
 62
     7
100
AcDbVertex
100
AcDb2dVertex
 10
9.769643
 20
2.044444
 30
0.0
  0
SEQEND
  5
2AD
100
AcDbEntity
  8
DIMENSIONS
  6
CONTINUOUS
 62
     7
  0
SOLID
  5
2AE
100
AcDbEntity
  8
DIMENSIONS
100
AcDbTrace
 10
9.582143
 20
1.5
 30
0.0
 11
9.497143
 21
1.471667
 31
0.0
 12
9.497143
 22
1.528333
 32
0.0
 13
9.497143
 23
1.528333
 33
0.0
  0
POLYLINE
  5
2AF
100
AcDbEntity
  8
DIMENSIONS
  6
CONTINUOUS
 62
     7
100
AcDb2dPolyline
 66
     1
 10
0.0
 20
0.0
 30
0.0
  0
VERTEX
  5
2B0
100
AcDbEntity
  8
DIMENSIONS
  6
CONTINUOUS
 62
     7
100
AcDbVertex
100
AcDb2dVertex
 10
9.415543
 20
1.5
 30
0.0
  0
VERTEX
  5
2B1
100
AcDbEntity
  8
DIMENSIONS
  6
CONTINUOUS
 62
     7
100
AcDbVertex
100
AcDb2dVertex
 10
9.582143
 20
1.5
 30
0.0
  0
SEQEND
  5
2B2
100
AcDbEntity
  8
DIMENSIONS
  6
CONTINUOUS
 62
     7
  0
SOLID
  5
2B3
100
AcDbEntity
  8
DIMENSIONS
100
AcDbTrace
 10
9.769643
 20
1.5
 30
0.0
 11
9.854643
 21
1.528333
 31
0.0
 12
9.854643
 22
1.471667
 32
0.0
 13
9.854643
 23
1.471667
 33
0.0
  0
POLYLINE
  5
2B4
100
AcDbEntity
  8
DIMENSIONS
  6
CONTINUOUS
 62
     7
100
AcDb2dPolyline
 66
     1
 10
0.0
 20
0.0
 30
0.0
  0
VERTEX
  5
2B5
100
AcDbEntity
  8
DIMENSIONS
  6
CONTINUOUS
 62
     7
100
AcDbVertex
100
AcDb2dVertex
 10
9.936243
 20
1.5
 30
0.0
  0
VERTEX
  5
2B6
100
AcDbEntity
  8
DIMENSIONS
  6
CONTINUOUS
 62
     7
100
AcDbVertex
100
AcDb2dVertex
 10
9.769643
 20
1.5
 30
0.0
  0
SEQEND
  5
2B7
100
AcDbEntity
  8
DIMENSIONS
  6
CONTINUOUS
 62
     7
  0
TEXT
  5
2B8
100
AcDbEntity
  8
DIMENSIONS
 62
     7
100
AcDbText
 10
9.412004
 20
1.465896
 30
0.0
 40
0.111111
  1
0.1875
  7
_DIMENSION
 72
     1
 11
9.675893
 21
1.507563
 31
0.0
100
AcDbText
 73
     2
  0
ENDBLK
  5
2BA
100
AcDbEntity
  8
0
100
AcDbBlockEnd
  0
BLOCK
  5
2C2
100
AcDbEntity
  8
0
100
AcDbBlockBegin
  2
VERTICAL_69
 70
    66
 10
6.075
 20
4.03
 30
0.0
  3
VERTICAL_69
  1

  0
ATTDEF
  5
2C3
100
AcDbEntity
  8
DIMENSIONS
100
AcDbText
 10
6.075
 20
4.78
 30
0.0
 40
0.25
  1
User.LPrecVal
100
AcDbAttributeDefinition
  3
Choose the displayed precision for the dimension.
  2
PRECISION
 70
     1
  0
ATTDEF
  5
2C4
100
AcDbEntity
  8
DIMENSIONS
100
AcDbText
 10
6.075
 20
4.405
 30
0.0
 40
0.25
  1
User.LUnitsVal
100
AcDbAttributeDefinition
  3
Choose the units for the dimension.
  2
UNITS
 70
     1
  0
ATTDEF
  5
2C5
100
AcDbEntity
  8
DIMENSIONS
100
AcDbText
 10
6.075
 20
4.03
 30
0.0
 40
0.25
  1
User.ShowUnitsVal
100
AcDbAttributeDefinition
  3
Choose whether or not to display unit abbreviations.
  2
UNITSDISPLAY
 70
     1
  0
ATTDEF
  5
2C6
100
AcDbEntity
  8
DIMENSIONS
100
AcDbText
 10
6.075
 20
3.655
 30
0.0
 40
0.25
  1
Both
100
AcDbAttributeDefinition
  3
Choose which extension lines are visible.
  2
EXTENSIONLINES
 70
     1
  0
ATTDEF
  5
2C7
100
AcDbEntity
  8
DIMENSIONS
100
AcDbText
 10
6.075
 20
3.28
 30
0.0
 40
0.25
  1
90 deg.
100
AcDbAttributeDefinition
  3
Choose the angle at which the dimension line is rotated.
  2
ANGLE
 70
     1
  0
POLYLINE
  5
2C8
100
AcDbEntity
  8
DIMENSIONS
  6
CONTINUOUS
 62
     7
100
AcDb2dPolyline
 66
     1
 10
0.0
 20
0.0
 30
0.0
 70
     1
  0
VERTEX
  5
2C9
100
AcDbEntity
  8
DIMENSIONS
  6
CONTINUOUS
 62
     7
100
AcDbVertex
100
AcDb2dVertex
 10
5.713889
 20
4.03
 30
0.0
  0
VERTEX
  5
2CA
100
AcDbEntity
  8
DIMENSIONS
  6
CONTINUOUS
 62
     7
100
AcDbVertex
100
AcDb2dVertex
 10
6.019444
 20
4.03
 30
0.0
  0
SEQEND
  5
2CB
100
AcDbEntity
  8
DIMENSIONS
  6
CONTINUOUS
 62
     7
  0
POLYLINE
  5
2CC
100
AcDbEntity
  8
DIMENSIONS
  6
CONTINUOUS
 62
     7
100
AcDb2dPolyline
 66
     1
 10
0.0
 20
0.0
 30
0.0
 70
     1
  0
VERTEX
  5
2CD
100
AcDbEntity
  8
DIMENSIONS
  6
CONTINUOUS
 62
     7
100
AcDbVertex
100
AcDb2dVertex
 10
5.713889
 20
4.53
 30
0.0
  0
VERTEX
  5
2CE
100
AcDbEntity
  8
DIMENSIONS
  6
CONTINUOUS
 62
     7
100
AcDbVertex
100
AcDb2dVertex
 10
6.019444
 20
4.53
 30
0.0
  0
SEQEND
  5
2CF
100
AcDbEntity
  8
DIMENSIONS
  6
CONTINUOUS
 62
     7
  0
SOLID
  5
2D0
100
AcDbEntity
  8
DIMENSIONS
100
AcDbTrace
 10
5.825
 20
4.03
 30
0.0
 11
5.796667
 21
4.115
 31
0.0
 12
5.853333
 22
4.115
 32
0.0
 13
5.853333
 23
4.115
 33
0.0
  0
POLYLINE
  5
2D1
100
AcDbEntity
  8
DIMENSIONS
  6
CONTINUOUS
 62
     7
100
AcDb2dPolyline
 66
     1
 10
0.0
 20
0.0
 30
0.0
  0
VERTEX
  5
2D2
100
AcDbEntity
  8
DIMENSIONS
  6
CONTINUOUS
 62
     7
100
AcDbVertex
100
AcDb2dVertex
 10
5.825
 20
4.28
 30
0.0
  0
VERTEX
  5
2D3
100
AcDbEntity
  8
DIMENSIONS
  6
CONTINUOUS
 62
     7
100
AcDbVertex
100
AcDb2dVertex
 10
5.825
 20
4.03
 30
0.0
  0
SEQEND
  5
2D4
100
AcDbEntity
  8
DIMENSIONS
  6
CONTINUOUS
 62
     7
  0
SOLID
  5
2D5
100
AcDbEntity
  8
DIMENSIONS
100
AcDbTrace
 10
5.825
 20
4.53
 30
0.0
 11
5.853333
 21
4.445
 31
0.0
 12
5.796667
 22
4.445
 32
0.0
 13
5.796667
 23
4.445
 33
0.0
  0
POLYLINE
  5
2D6
100
AcDbEntity
  8
DIMENSIONS
  6
CONTINUOUS
 62
     7
100
AcDb2dPolyline
 66
     1
 10
0.0
 20
0.0
 30
0.0
  0
VERTEX
  5
2D7
100
AcDbEntity
  8
DIMENSIONS
  6
CONTINUOUS
 62
     7
100
AcDbVertex
100
AcDb2dVertex
 10
5.825
 20
4.28
 30
0.0
  0
VERTEX
  5
2D8
100
AcDbEntity
  8
DIMENSIONS
  6
CONTINUOUS
 62
     7
100
AcDbVertex
100
AcDb2dVertex
 10
5.825
 20
4.53
 30
0.0
  0
SEQEND
  5
2D9
100
AcDbEntity
  8
DIMENSIONS
  6
CONTINUOUS
 62
     7
  0
TEXT
  5
2DA
100
AcDbEntity
  8
DIMENSIONS
 62
     7
100
AcDbText
 10
5.656019
 20
4.238333
 30
0.0
 40
0.111111
  1
0.50
  7
_DIMENSION
 72
     1
 11
5.825
 21
4.28
 31
0.0
100
AcDbText
 73
     2
  0
ENDBLK
  5
2DC
100
AcDbEntity
  8
0
100
AcDbBlockEnd
  0
BLOCK
  5
2E4
100
AcDbEntity
  8
0
100
AcDbBlockBegin
  2
VERTICAL_70
 70
    66
 10
5.6
 20
3.28
 30
0.0
  3
VERTICAL_70
  1

  0
ATTDEF
  5
2E5
100
AcDbEntity
  8
DIMENSIONS
100
AcDbText
 10
5.6
 20
4.03
 30
0.0
 40
0.25
  1
User.LPrecVal
100
AcDbAttributeDefinition
  3
Choose the displayed precision for the dimension.
  2
PRECISION
 70
     1
  0
ATTDEF
  5
2E6
100
AcDbEntity
  8
DIMENSIONS
100
AcDbText
 10
5.6
 20
3.655
 30
0.0
 40
0.25
  1
User.LUnitsVal
100
AcDbAttributeDefinition
  3
Choose the units for the dimension.
  2
UNITS
 70
     1
  0
ATTDEF
  5
2E7
100
AcDbEntity
  8
DIMENSIONS
100
AcDbText
 10
5.6
 20
3.28
 30
0.0
 40
0.25
  1
User.ShowUnitsVal
100
AcDbAttributeDefinition
  3
Choose whether or not to display unit abbreviations.
  2
UNITSDISPLAY
 70
     1
  0
ATTDEF
  5
2E8
100
AcDbEntity
  8
DIMENSIONS
100
AcDbText
 10
5.6
 20
2.905
 30
0.0
 40
0.25
  1
Both
100
AcDbAttributeDefinition
  3
Choose which extension lines are visible.
  2
EXTENSIONLINES
 70
     1
  0
ATTDEF
  5
2E9
100
AcDbEntity
  8
DIMENSIONS
100
AcDbText
 10
5.6
 20
2.53
 30
0.0
 40
0.25
  1
90 deg.
100
AcDbAttributeDefinition
  3
Choose the angle at which the dimension line is rotated.
  2
ANGLE
 70
     1
  0
POLYLINE
  5
2EA
100
AcDbEntity
  8
DIMENSIONS
  6
CONTINUOUS
 62
     7
100
AcDb2dPolyline
 66
     1
 10
0.0
 20
0.0
 30
0.0
 70
     1
  0
VERTEX
  5
2EB
100
AcDbEntity
  8
DIMENSIONS
  6
CONTINUOUS
 62
     7
100
AcDbVertex
100
AcDb2dVertex
 10
5.238889
 20
3.28
 30
0.0
  0
VERTEX
  5
2EC
100
AcDbEntity
  8
DIMENSIONS
  6
CONTINUOUS
 62
     7
100
AcDbVertex
100
AcDb2dVertex
 10
5.544444
 20
3.28
 30
0.0
  0
SEQEND
  5
2ED
100
AcDbEntity
  8
DIMENSIONS
  6
CONTINUOUS
 62
     7
  0
POLYLINE
  5
2EE
100
AcDbEntity
  8
DIMENSIONS
  6
CONTINUOUS
 62
     7
100
AcDb2dPolyline
 66
     1
 10
0.0
 20
0.0
 30
0.0
 70
     1
  0
VERTEX
  5
2EF
100
AcDbEntity
  8
DIMENSIONS
  6
CONTINUOUS
 62
     7
100
AcDbVertex
100
AcDb2dVertex
 10
5.238889
 20
4.03
 30
0.0
  0
VERTEX
  5
2F0
100
AcDbEntity
  8
DIMENSIONS
  6
CONTINUOUS
 62
     7
100
AcDbVertex
100
AcDb2dVertex
 10
5.544444
 20
4.03
 30
0.0
  0
SEQEND
  5
2F1
100
AcDbEntity
  8
DIMENSIONS
  6
CONTINUOUS
 62
     7
  0
SOLID
  5
2F2
100
AcDbEntity
  8
DIMENSIONS
100
AcDbTrace
 10
5.35
 20
3.28
 30
0.0
 11
5.321667
 21
3.365
 31
0.0
 12
5.378333
 22
3.365
 32
0.0
 13
5.378333
 23
3.365
 33
0.0
  0
POLYLINE
  5
2F3
100
AcDbEntity
  8
DIMENSIONS
  6
CONTINUOUS
 62
     7
100
AcDb2dPolyline
 66
     1
 10
0.0
 20
0.0
 30
0.0
  0
VERTEX
  5
2F4
100
AcDbEntity
  8
DIMENSIONS
  6
CONTINUOUS
 62
     7
100
AcDbVertex
100
AcDb2dVertex
 10
5.35
 20
3.655
 30
0.0
  0
VERTEX
  5
2F5
100
AcDbEntity
  8
DIMENSIONS
  6
CONTINUOUS
 62
     7
100
AcDbVertex
100
AcDb2dVertex
 10
5.35
 20
3.28
 30
0.0
  0
SEQEND
  5
2F6
100
AcDbEntity
  8
DIMENSIONS
  6
CONTINUOUS
 62
     7
  0
SOLID
  5
2F7
100
AcDbEntity
  8
DIMENSIONS
100
AcDbTrace
 10
5.35
 20
4.03
 30
0.0
 11
5.378333
 21
3.945
 31
0.0
 12
5.321667
 22
3.945
 32
0.0
 13
5.321667
 23
3.945
 33
0.0
  0
POLYLINE
  5
2F8
100
AcDbEntity
  8
DIMENSIONS
  6
CONTINUOUS
 62
     7
100
AcDb2dPolyline
 66
     1
 10
0.0
 20
0.0
 30
0.0
  0
VERTEX
  5
2F9
100
AcDbEntity
  8
DIMENSIONS
  6
CONTINUOUS
 62
     7
100
AcDbVertex
100
AcDb2dVertex
 10
5.35
 20
3.655
 30
0.0
  0
VERTEX
  5
2FA
100
AcDbEntity
  8
DIMENSIONS
  6
CONTINUOUS
 62
     7
100
AcDbVertex
100
AcDb2dVertex
 10
5.35
 20
4.03
 30
0.0
  0
SEQEND
  5
2FB
100
AcDbEntity
  8
DIMENSIONS
  6
CONTINUOUS
 62
     7
  0
TEXT
  5
2FC
100
AcDbEntity
  8
DIMENSIONS
 62
     7
100
AcDbText
 10
5.181019
 20
3.613333
 30
0.0
 40
0.111111
  1
0.75
  7
_DIMENSION
 72
     1
 11
5.35
 21
3.655
 31
0.0
100
AcDbText
 73
     2
  0
ENDBLK
  5
2FE
100
AcDbEntity
  8
0
100
AcDbBlockEnd
  0
BLOCK
  5
306
100
AcDbEntity
  8
0
100
AcDbBlockBegin
  2
HORIZONTAL_71
 70
    66
 10
1.7475
 20
6.45
 30
0.0
  3
HORIZONTAL_71
  1

  0
ATTDEF
  5
307
100
AcDbEntity
  8
DIMENSIONS
100
AcDbText
 10
1.7475
 20
7.2
 30
0.0
 40
0.25
  1
User.LPrecVal
100
AcDbAttributeDefinition
  3
Choose the displayed precision for the dimension.
  2
PRECISION
 70
     1
  0
ATTDEF
  5
308
100
AcDbEntity
  8
DIMENSIONS
100
AcDbText
 10
1.7475
 20
6.825
 30
0.0
 40
0.25
  1
User.LUnitsVal
100
AcDbAttributeDefinition
  3
Choose the units for the dimension.
  2
UNITS
 70
     1
  0
ATTDEF
  5
309
100
AcDbEntity
  8
DIMENSIONS
100
AcDbText
 10
1.7475
 20
6.45
 30
0.0
 40
0.25
  1
User.ShowUnitsVal
100
AcDbAttributeDefinition
  3
Choose whether or not to display unit abbreviations.
  2
UNITSDISPLAY
 70
     1
  0
ATTDEF
  5
30A
100
AcDbEntity
  8
DIMENSIONS
100
AcDbText
 10
1.7475
 20
6.075
 30
0.0
 40
0.25
  1
Both
100
AcDbAttributeDefinition
  3
Choose which extension lines are visible.
  2
EXTENSIONLINES
 70
     1
  0
ATTDEF
  5
30B
100
AcDbEntity
  8
DIMENSIONS
100
AcDbText
 10
1.7475
 20
5.7
 30
0.0
 40
0.25
  1
0 deg.
100
AcDbAttributeDefinition
  3
Choose the angle at which the dimension line is rotated.
  2
ANGLE
 70
     1
  0
POLYLINE
  5
30C
100
AcDbEntity
  8
DIMENSIONS
  6
CONTINUOUS
 62
     7
100
AcDb2dPolyline
 66
     1
 10
0.0
 20
0.0
 30
0.0
 70
     1
  0
VERTEX
  5
30D
100
AcDbEntity
  8
DIMENSIONS
  6
CONTINUOUS
 62
     7
100
AcDbVertex
100
AcDb2dVertex
 10
1.7475
 20
6.811111
 30
0.0
  0
VERTEX
  5
30E
100
AcDbEntity
  8
DIMENSIONS
  6
CONTINUOUS
 62
     7
100
AcDbVertex
100
AcDb2dVertex
 10
1.7475
 20
6.505556
 30
0.0
  0
SEQEND
  5
30F
100
AcDbEntity
  8
DIMENSIONS
  6
CONTINUOUS
 62
     7
  0
POLYLINE
  5
310
100
AcDbEntity
  8
DIMENSIONS
  6
CONTINUOUS
 62
     7
100
AcDb2dPolyline
 66
     1
 10
0.0
 20
0.0
 30
0.0
 70
     1
  0
VERTEX
  5
311
100
AcDbEntity
  8
DIMENSIONS
  6
CONTINUOUS
 62
     7
100
AcDbVertex
100
AcDb2dVertex
 10
9.7475
 20
6.811111
 30
0.0
  0
VERTEX
  5
312
100
AcDbEntity
  8
DIMENSIONS
  6
CONTINUOUS
 62
     7
100
AcDbVertex
100
AcDb2dVertex
 10
9.7475
 20
6.505556
 30
0.0
  0
SEQEND
  5
313
100
AcDbEntity
  8
DIMENSIONS
  6
CONTINUOUS
 62
     7
  0
SOLID
  5
314
100
AcDbEntity
  8
DIMENSIONS
100
AcDbTrace
 10
1.7475
 20
6.7
 30
0.0
 11
1.8325
 21
6.728333
 31
0.0
 12
1.8325
 22
6.671667
 32
0.0
 13
1.8325
 23
6.671667
 33
0.0
  0
POLYLINE
  5
315
100
AcDbEntity
  8
DIMENSIONS
  6
CONTINUOUS
 62
     7
100
AcDb2dPolyline
 66
     1
 10
0.0
 20
0.0
 30
0.0
  0
VERTEX
  5
316
100
AcDbEntity
  8
DIMENSIONS
  6
CONTINUOUS
 62
     7
100
AcDbVertex
100
AcDb2dVertex
 10
5.7475
 20
6.7
 30
0.0
  0
VERTEX
  5
317
100
AcDbEntity
  8
DIMENSIONS
  6
CONTINUOUS
 62
     7
100
AcDbVertex
100
AcDb2dVertex
 10
1.7475
 20
6.7
 30
0.0
  0
SEQEND
  5
318
100
AcDbEntity
  8
DIMENSIONS
  6
CONTINUOUS
 62
     7
  0
SOLID
  5
319
100
AcDbEntity
  8
DIMENSIONS
100
AcDbTrace
 10
9.7475
 20
6.7
 30
0.0
 11
9.6625
 21
6.671667
 31
0.0
 12
9.6625
 22
6.728333
 32
0.0
 13
9.6625
 23
6.728333
 33
0.0
  0
POLYLINE
  5
31A
100
AcDbEntity
  8
DIMENSIONS
  6
CONTINUOUS
 62
     7
100
AcDb2dPolyline
 66
     1
 10
0.0
 20
0.0
 30
0.0
  0
VERTEX
  5
31B
100
AcDbEntity
  8
DIMENSIONS
  6
CONTINUOUS
 62
     7
100
AcDbVertex
100
AcDb2dVertex
 10
5.7475
 20
6.7
 30
0.0
  0
VERTEX
  5
31C
100
AcDbEntity
  8
DIMENSIONS
  6
CONTINUOUS
 62
     7
100
AcDbVertex
100
AcDb2dVertex
 10
9.7475
 20
6.7
 30
0.0
  0
SEQEND
  5
31D
100
AcDbEntity
  8
DIMENSIONS
  6
CONTINUOUS
 62
     7
  0
TEXT
  5
31E
100
AcDbEntity
  8
DIMENSIONS
 62
     7
100
AcDbText
 10
5.578519
 20
6.658333
 30
0.0
 40
0.111111
  1
8.00
  7
_DIMENSION
 72
     1
 11
5.7475
 21
6.7
 31
0.0
100
AcDbText
 73
     2
  0
ENDBLK
  5
320
100
AcDbEntity
  8
0
100
AcDbBlockEnd
  0
BLOCK
  5
328
100
AcDbEntity
  8
0
100
AcDbBlockBegin
  2
HORIZONTAL_72
 70
    66
 10
1.435
 20
6.45
 30
0.0
  3
HORIZONTAL_72
  1

  0
ATTDEF
  5
329
100
AcDbEntity
  8
DIMENSIONS
100
AcDbText
 10
1.435
 20
7.2
 30
0.0
 40
0.25
  1
0.0000
100
AcDbAttributeDefinition
  3
Choose the displayed precision for the dimension.
  2
PRECISION
 70
     1
  0
ATTDEF
  5
32A
100
AcDbEntity
  8
DIMENSIONS
100
AcDbText
 10
1.435
 20
6.825
 30
0.0
 40
0.25
  1
User.LUnitsVal
100
AcDbAttributeDefinition
  3
Choose the units for the dimension.
  2
UNITS
 70
     1
  0
ATTDEF
  5
32B
100
AcDbEntity
  8
DIMENSIONS
100
AcDbText
 10
1.435
 20
6.45
 30
0.0
 40
0.25
  1
User.ShowUnitsVal
100
AcDbAttributeDefinition
  3
Choose whether or not to display unit abbreviations.
  2
UNITSDISPLAY
 70
     1
  0
ATTDEF
  5
32C
100
AcDbEntity
  8
DIMENSIONS
100
AcDbText
 10
1.435
 20
6.075
 30
0.0
 40
0.25
  1
Both
100
AcDbAttributeDefinition
  3
Choose which extension lines are visible.
  2
EXTENSIONLINES
 70
     1
  0
ATTDEF
  5
32D
100
AcDbEntity
  8
DIMENSIONS
100
AcDbText
 10
1.435
 20
5.7
 30
0.0
 40
0.25
  1
0 deg.
100
AcDbAttributeDefinition
  3
Choose the angle at which the dimension line is rotated.
  2
ANGLE
 70
     1
  0
POLYLINE
  5
32E
100
AcDbEntity
  8
DIMENSIONS
  6
CONTINUOUS
 62
     7
100
AcDb2dPolyline
 66
     1
 10
0.0
 20
0.0
 30
0.0
 70
     1
  0
VERTEX
  5
32F
100
AcDbEntity
  8
DIMENSIONS
  6
CONTINUOUS
 62
     7
100
AcDbVertex
100
AcDb2dVertex
 10
1.435
 20
6.811111
 30
0.0
  0
VERTEX
  5
330
100
AcDbEntity
  8
DIMENSIONS
  6
CONTINUOUS
 62
     7
100
AcDbVertex
100
AcDb2dVertex
 10
1.435
 20
6.505556
 30
0.0
  0
SEQEND
  5
331
100
AcDbEntity
  8
DIMENSIONS
  6
CONTINUOUS
 62
     7
  0
POLYLINE
  5
332
100
AcDbEntity
  8
DIMENSIONS
  6
CONTINUOUS
 62
     7
100
AcDb2dPolyline
 66
     1
 10
0.0
 20
0.0
 30
0.0
 70
     1
  0
VERTEX
  5
333
100
AcDbEntity
  8
DIMENSIONS
  6
CONTINUOUS
 62
     7
100
AcDbVertex
100
AcDb2dVertex
 10
1.7475
 20
6.811111
 30
0.0
  0
VERTEX
  5
334
100
AcDbEntity
  8
DIMENSIONS
  6
CONTINUOUS
 62
     7
100
AcDbVertex
100
AcDb2dVertex
 10
1.7475
 20
6.505556
 30
0.0
  0
SEQEND
  5
335
100
AcDbEntity
  8
DIMENSIONS
  6
CONTINUOUS
 62
     7
  0
SOLID
  5
336
100
AcDbEntity
  8
DIMENSIONS
100
AcDbTrace
 10
1.435
 20
6.7
 30
0.0
 11
1.52
 21
6.728333
 31
0.0
 12
1.52
 22
6.671667
 32
0.0
 13
1.52
 23
6.671667
 33
0.0
  0
POLYLINE
  5
337
100
AcDbEntity
  8
DIMENSIONS
  6
CONTINUOUS
 62
     7
100
AcDb2dPolyline
 66
     1
 10
0.0
 20
0.0
 30
0.0
  0
VERTEX
  5
338
100
AcDbEntity
  8
DIMENSIONS
  6
CONTINUOUS
 62
     7
100
AcDbVertex
100
AcDb2dVertex
 10
1.59125
 20
6.7
 30
0.0
  0
VERTEX
  5
339
100
AcDbEntity
  8
DIMENSIONS
  6
CONTINUOUS
 62
     7
100
AcDbVertex
100
AcDb2dVertex
 10
1.435
 20
6.7
 30
0.0
  0
SEQEND
  5
33A
100
AcDbEntity
  8
DIMENSIONS
  6
CONTINUOUS
 62
     7
  0
SOLID
  5
33B
100
AcDbEntity
  8
DIMENSIONS
100
AcDbTrace
 10
1.7475
 20
6.7
 30
0.0
 11
1.6625
 21
6.671667
 31
0.0
 12
1.6625
 22
6.728333
 32
0.0
 13
1.6625
 23
6.728333
 33
0.0
  0
POLYLINE
  5
33C
100
AcDbEntity
  8
DIMENSIONS
  6
CONTINUOUS
 62
     7
100
AcDb2dPolyline
 66
     1
 10
0.0
 20
0.0
 30
0.0
  0
VERTEX
  5
33D
100
AcDbEntity
  8
DIMENSIONS
  6
CONTINUOUS
 62
     7
100
AcDbVertex
100
AcDb2dVertex
 10
1.59125
 20
6.7
 30
0.0
  0
VERTEX
  5
33E
100
AcDbEntity
  8
DIMENSIONS
  6
CONTINUOUS
 62
     7
100
AcDbVertex
100
AcDb2dVertex
 10
1.7475
 20
6.7
 30
0.0
  0
SEQEND
  5
33F
100
AcDbEntity
  8
DIMENSIONS
  6
CONTINUOUS
 62
     7
  0
POLYLINE
  5
340
100
AcDbEntity
  8
DIMENSIONS
  6
CONTINUOUS
 62
     7
100
AcDb2dPolyline
 66
     1
 10
0.0
 20
0.0
 30
0.0
 70
     1
  0
VERTEX
  5
341
100
AcDbEntity
  8
DIMENSIONS
  6
CONTINUOUS
 62
     7
100
AcDbVertex
100
AcDb2dVertex
 10
1.098478
 20
6.7
 30
0.0
  0
VERTEX
  5
342
100
AcDbEntity
  8
DIMENSIONS
  6
CONTINUOUS
 62
     7
100
AcDbVertex
100
AcDb2dVertex
 10
1.435
 20
6.7
 30
0.0
  0
SEQEND
  5
343
100
AcDbEntity
  8
DIMENSIONS
  6
CONTINUOUS
 62
     7
  0
TEXT
  5
344
100
AcDbEntity
  8
DIMENSIONS
 62
     7
100
AcDbText
 10
0.834589
 20
6.658333
 30
0.0
 40
0.111111
  1
0.3125
  7
_DIMENSION
 72
     1
 11
1.098478
 21
6.7
 31
0.0
100
AcDbText
 73
     2
  0
ENDBLK
  5
346
100
AcDbEntity
  8
0
100
AcDbBlockEnd
  0
BLOCK
  5
34E
100
AcDbEntity
  8
0
100
AcDbBlockBegin
  2
VERTICAL_74
 70
    66
 10
1.423694
 20
3.120303
 30
0.0
  3
VERTICAL_74
  1

  0
ATTDEF
  5
34F
100
AcDbEntity
  8
DIMENSIONS
100
AcDbText
 10
1.423694
 20
3.870303
 30
0.0
 40
0.25
  1
User.LPrecVal
100
AcDbAttributeDefinition
  3
Choose the displayed precision for the dimension.
  2
PRECISION
 70
     1
  0
ATTDEF
  5
350
100
AcDbEntity
  8
DIMENSIONS
100
AcDbText
 10
1.423694
 20
3.495303
 30
0.0
 40
0.25
  1
User.LUnitsVal
100
AcDbAttributeDefinition
  3
Choose the units for the dimension.
  2
UNITS
 70
     1
  0
ATTDEF
  5
351
100
AcDbEntity
  8
DIMENSIONS
100
AcDbText
 10
1.423694
 20
3.120303
 30
0.0
 40
0.25
  1
User.ShowUnitsVal
100
AcDbAttributeDefinition
  3
Choose whether or not to display unit abbreviations.
  2
UNITSDISPLAY
 70
     1
  0
ATTDEF
  5
352
100
AcDbEntity
  8
DIMENSIONS
100
AcDbText
 10
1.423694
 20
2.745303
 30
0.0
 40
0.25
  1
Both
100
AcDbAttributeDefinition
  3
Choose which extension lines are visible.
  2
EXTENSIONLINES
 70
     1
  0
ATTDEF
  5
353
100
AcDbEntity
  8
DIMENSIONS
100
AcDbText
 10
1.423694
 20
2.370303
 30
0.0
 40
0.25
  1
90 deg.
100
AcDbAttributeDefinition
  3
Choose the angle at which the dimension line is rotated.
  2
ANGLE
 70
     1
  0
POLYLINE
  5
354
100
AcDbEntity
  8
DIMENSIONS
  6
CONTINUOUS
 62
     7
100
AcDb2dPolyline
 66
     1
 10
0.0
 20
0.0
 30
0.0
 70
     1
  0
VERTEX
  5
355
100
AcDbEntity
  8
DIMENSIONS
  6
CONTINUOUS
 62
     7
100
AcDbVertex
100
AcDb2dVertex
 10
0.36244
 20
3.120303
 30
0.0
  0
VERTEX
  5
356
100
AcDbEntity
  8
DIMENSIONS
  6
CONTINUOUS
 62
     7
100
AcDbVertex
100
AcDb2dVertex
 10
1.368138
 20
3.120303
 30
0.0
  0
SEQEND
  5
357
100
AcDbEntity
  8
DIMENSIONS
  6
CONTINUOUS
 62
     7
  0
POLYLINE
  5
358
100
AcDbEntity
  8
DIMENSIONS
  6
CONTINUOUS
 62
     7
100
AcDb2dPolyline
 66
     1
 10
0.0
 20
0.0
 30
0.0
 70
     1
  0
VERTEX
  5
359
100
AcDbEntity
  8
DIMENSIONS
  6
CONTINUOUS
 62
     7
100
AcDbVertex
100
AcDb2dVertex
 10
0.36244
 20
3.37
 30
0.0
  0
VERTEX
  5
35A
100
AcDbEntity
  8
DIMENSIONS
  6
CONTINUOUS
 62
     7
100
AcDbVertex
100
AcDb2dVertex
 10
1.380444
 20
3.37
 30
0.0
  0
SEQEND
  5
35B
100
AcDbEntity
  8
DIMENSIONS
  6
CONTINUOUS
 62
     7
  0
SOLID
  5
35C
100
AcDbEntity
  8
DIMENSIONS
100
AcDbTrace
 10
0.473551
 20
3.120303
 30
0.0
 11
0.501884
 21
3.035303
 31
0.0
 12
0.445217
 22
3.035303
 32
0.0
 13
0.445217
 23
3.035303
 33
0.0
  0
POLYLINE
  5
35D
100
AcDbEntity
  8
DIMENSIONS
  6
CONTINUOUS
 62
     7
100
AcDb2dPolyline
 66
     1
 10
0.0
 20
0.0
 30
0.0
  0
VERTEX
  5
35E
100
AcDbEntity
  8
DIMENSIONS
  6
CONTINUOUS
 62
     7
100
AcDbVertex
100
AcDb2dVertex
 10
0.473551
 20
2.953703
 30
0.0
  0
VERTEX
  5
35F
100
AcDbEntity
  8
DIMENSIONS
  6
CONTINUOUS
 62
     7
100
AcDbVertex
100
AcDb2dVertex
 10
0.473551
 20
3.120303
 30
0.0
  0
SEQEND
  5
360
100
AcDbEntity
  8
DIMENSIONS
  6
CONTINUOUS
 62
     7
  0
SOLID
  5
361
100
AcDbEntity
  8
DIMENSIONS
100
AcDbTrace
 10
0.473551
 20
3.37
 30
0.0
 11
0.445217
 21
3.455
 31
0.0
 12
0.501884
 22
3.455
 32
0.0
 13
0.501884
 23
3.455
 33
0.0
  0
POLYLINE
  5
362
100
AcDbEntity
  8
DIMENSIONS
  6
CONTINUOUS
 62
     7
100
AcDb2dPolyline
 66
     1
 10
0.0
 20
0.0
 30
0.0
  0
VERTEX
  5
363
100
AcDbEntity
  8
DIMENSIONS
  6
CONTINUOUS
 62
     7
100
AcDbVertex
100
AcDb2dVertex
 10
0.473551
 20
3.5366
 30
0.0
  0
VERTEX
  5
364
100
AcDbEntity
  8
DIMENSIONS
  6
CONTINUOUS
 62
     7
100
AcDbVertex
100
AcDb2dVertex
 10
0.473551
 20
3.37
 30
0.0
  0
SEQEND
  5
365
100
AcDbEntity
  8
DIMENSIONS
  6
CONTINUOUS
 62
     7
  0
TEXT
  5
366
100
AcDbEntity
  8
DIMENSIONS
 62
     7
100
AcDbText
 10
0.304569
 20
3.203485
 30
0.0
 40
0.111111
  1
0.25
  7
_DIMENSION
 72
     1
 11
0.473551
 21
3.245152
 31
0.0
100
AcDbText
 73
     2
  0
ENDBLK
  5
368
100
AcDbEntity
  8
0
100
AcDbBlockEnd
  0
BLOCK
  5
370
100
AcDbEntity
  8
0
100
AcDbBlockBegin
  2
BOX_CALLOUT
 70
    66
 10
2.375
 20
7.35
 30
0.0
  3
BOX_CALLOUT
  1

  0
POLYLINE
  5
371
100
AcDbEntity
  8
DIMENSIONS
  6
CONTINUOUS
 62
     7
100
AcDb2dPolyline
 66
     1
 10
0.0
 20
0.0
 30
0.0
  0
VERTEX
  5
372
100
AcDbEntity
  8
DIMENSIONS
  6
CONTINUOUS
 62
     7
100
AcDbVertex
100
AcDb2dVertex
 10
1.625
 20
6.8
 30
0.0
  0
VERTEX
  5
373
100
AcDbEntity
  8
DIMENSIONS
  6
CONTINUOUS
 62
     7
100
AcDbVertex
100
AcDb2dVertex
 10
1.708287
 20
6.820259
 30
0.0
  0
SEQEND
  5
374
100
AcDbEntity
  8
DIMENSIONS
  6
CONTINUOUS
 62
     7
  0
POLYLINE
  5
375
100
AcDbEntity
  8
DIMENSIONS
  6
CONTINUOUS
 62
     7
100
AcDb2dPolyline
 66
     1
 10
0.0
 20
0.0
 30
0.0
  0
VERTEX
  5
376
100
AcDbEntity
  8
DIMENSIONS
  6
CONTINUOUS
 62
     7
100
AcDbVertex
100
AcDb2dVertex
 10
3.125
 20
7.9
 30
0.0
  0
VERTEX
  5
377
100
AcDbEntity
  8
DIMENSIONS
  6
CONTINUOUS
 62
     7
100
AcDbVertex
100
AcDb2dVertex
 10
2.925
 20
7.9
 30
0.0
  0
VERTEX
  5
378
100
AcDbEntity
  8
DIMENSIONS
  6
CONTINUOUS
 62
     7
100
AcDbVertex
100
AcDb2dVertex
 10
1.625
 20
6.8
 30
0.0
  0
SEQEND
  5
379
100
AcDbEntity
  8
DIMENSIONS
  6
CONTINUOUS
 62
     7
  0
POLYLINE
  5
37A
100
AcDbEntity
  8
DIMENSIONS
  6
CONTINUOUS
 62
     7
100
AcDb2dPolyline
 66
     1
 10
0.0
 20
0.0
 30
0.0
 70
     1
  0
VERTEX
  5
37B
100
AcDbEntity
  8
DIMENSIONS
  6
CONTINUOUS
 62
     7
100
AcDbVertex
100
AcDb2dVertex
 10
3.125
 20
8.033333
 30
0.0
  0
VERTEX
  5
37C
100
AcDbEntity
  8
DIMENSIONS
  6
CONTINUOUS
 62
     7
100
AcDbVertex
100
AcDb2dVertex
 10
3.125
 20
7.766667
 30
0.0
  0
VERTEX
  5
37D
100
AcDbEntity
  8
DIMENSIONS
  6
CONTINUOUS
 62
     7
100
AcDbVertex
100
AcDb2dVertex
 10
3.971083
 20
7.766667
 30
0.0
  0
VERTEX
  5
37E
100
AcDbEntity
  8
DIMENSIONS
  6
CONTINUOUS
 62
     7
100
AcDbVertex
100
AcDb2dVertex
 10
3.971083
 20
8.033333
 30
0.0
  0
SEQEND
  5
37F
100
AcDbEntity
  8
DIMENSIONS
  6
CONTINUOUS
 62
     7
  0
TEXT
  5
381
100
AcDbEntity
  8
DIMENSIONS
 62
     7
100
AcDbText
 10
3.193296
 20
7.950926
 30
0.0
 40
0.111111
  1
Stainless
  7
_GDT_CALLOUT
 72
     1
 11
3.548041
 21
7.992593
 31
0.0
100
AcDbText
 73
     2
  0
TEXT
  5
382
100
AcDbEntity
  8
DIMENSIONS
 62
     7
100
AcDbText
 10
3.363435
 20
7.765741
 30
0.0
 40
0.111111
  1
Steel
  7
_GDT_CALLOUT
 72
     1
 11
3.548041
 21
7.807407
 31
0.0
100
AcDbText
 73
     2
  0
ENDBLK
  5
384
100
AcDbEntity
  8
0
100
AcDbBlockEnd
  0
BLOCK
  5
386
100
AcDbEntity
  8
0
100
AcDbBlockBegin
  2
BOX_CALLOUT_76
 70
    66
 10
2.564754
 20
6.815885
 30
0.0
  3
BOX_CALLOUT_76
  1

  0
POLYLINE
  5
387
100
AcDbEntity
  8
DIMENSIONS
  6
CONTINUOUS
 62
     7
100
AcDb2dPolyline
 66
     1
 10
0.0
 20
0.0
 30
0.0
  0
VERTEX
  5
388
100
AcDbEntity
  8
DIMENSIONS
  6
CONTINUOUS
 62
     7
100
AcDbVertex
100
AcDb2dVertex
 10
1.95
 20
6.4
 30
0.0
  0
VERTEX
  5
389
100
AcDbEntity
  8
DIMENSIONS
  6
CONTINUOUS
 62
     7
100
AcDbVertex
100
AcDb2dVertex
 10
2.033726
 20
6.418363
 30
0.0
  0
SEQEND
  5
38A
100
AcDbEntity
  8
DIMENSIONS
  6
CONTINUOUS
 62
     7
  0
POLYLINE
  5
38B
100
AcDbEntity
  8
DIMENSIONS
  6
CONTINUOUS
 62
     7
100
AcDb2dPolyline
 66
     1
 10
0.0
 20
0.0
 30
0.0
  0
VERTEX
  5
38C
100
AcDbEntity
  8
DIMENSIONS
  6
CONTINUOUS
 62
     7
100
AcDbVertex
100
AcDb2dVertex
 10
3.179507
 20
7.23177
 30
0.0
  0
VERTEX
  5
38D
100
AcDbEntity
  8
DIMENSIONS
  6
CONTINUOUS
 62
     7
100
AcDbVertex
100
AcDb2dVertex
 10
2.979507
 20
7.23177
 30
0.0
  0
VERTEX
  5
38E
100
AcDbEntity
  8
DIMENSIONS
  6
CONTINUOUS
 62
     7
100
AcDbVertex
100
AcDb2dVertex
 10
1.95
 20
6.4
 30
0.0
  0
SEQEND
  5
38F
100
AcDbEntity
  8
DIMENSIONS
  6
CONTINUOUS
 62
     7
  0
POLYLINE
  5
390
100
AcDbEntity
  8
DIMENSIONS
  6
CONTINUOUS
 62
     7
100
AcDb2dPolyline
 66
     1
 10
0.0
 20
0.0
 30
0.0
 70
     1
  0
VERTEX
  5
391
100
AcDbEntity
  8
DIMENSIONS
  6
CONTINUOUS
 62
     7
100
AcDbVertex
100
AcDb2dVertex
 10
3.179507
 20
7.365103
 30
0.0
  0
VERTEX
  5
392
100
AcDbEntity
  8
DIMENSIONS
  6
CONTINUOUS
 62
     7
100
AcDbVertex
100
AcDb2dVertex
 10
3.179507
 20
7.098437
 30
0.0
  0
VERTEX
  5
393
100
AcDbEntity
  8
DIMENSIONS
  6
CONTINUOUS
 62
     7
100
AcDbVertex
100
AcDb2dVertex
 10
3.784596
 20
7.098437
 30
0.0
  0
VERTEX
  5
394
100
AcDbEntity
  8
DIMENSIONS
  6
CONTINUOUS
 62
     7
100
AcDbVertex
100
AcDb2dVertex
 10
3.784596
 20
7.365103
 30
0.0
  0
SEQEND
  5
395
100
AcDbEntity
  8
DIMENSIONS
  6
CONTINUOUS
 62
     7
  0
TEXT
  5
396
100
AcDbEntity
  8
DIMENSIONS
 62
     7
100
AcDbText
 10
3.092005
 20
7.190103
 30
0.0
 40
0.111111
  1
Aluminum
  7
_GDT_CALLOUT
 72
     1
 11
3.482052
 21
7.23177
 31
0.0
100
AcDbText
 73
     2
  0
ENDBLK
  5
398
100
AcDbEntity
  8
0
100
AcDbBlockEnd
  0
BLOCK
  5
39A
100
AcDbEntity
  8
0
100
AcDbBlockBegin
  2
HORIZONTAL_77
 70
    66
 10
1.775
 20
2.1
 30
0.0
  3
HORIZONTAL_77
  1

  0
ATTDEF
  5
39B
100
AcDbEntity
  8
DIMENSIONS
100
AcDbText
 10
1.775
 20
2.85
 30
0.0
 40
0.25
  1
0.00
100
AcDbAttributeDefinition
  3
Choose the displayed precision for the dimension.
  2
PRECISION
 70
     1
  0
ATTDEF
  5
39C
100
AcDbEntity
  8
DIMENSIONS
100
AcDbText
 10
1.775
 20
2.475
 30
0.0
 40
0.25
  1
User.LUnitsVal
100
AcDbAttributeDefinition
  3
Choose the units for the dimension.
  2
UNITS
 70
     1
  0
ATTDEF
  5
39D
100
AcDbEntity
  8
DIMENSIONS
100
AcDbText
 10
1.775
 20
2.1
 30
0.0
 40
0.25
  1
User.ShowUnitsVal
100
AcDbAttributeDefinition
  3
Choose whether or not to display unit abbreviations.
  2
UNITSDISPLAY
 70
     1
  0
ATTDEF
  5
39E
100
AcDbEntity
  8
DIMENSIONS
100
AcDbText
 10
1.775
 20
1.725
 30
0.0
 40
0.25
  1
Both
100
AcDbAttributeDefinition
  3
Choose which extension lines are visible.
  2
EXTENSIONLINES
 70
     1
  0
ATTDEF
  5
39F
100
AcDbEntity
  8
DIMENSIONS
100
AcDbText
 10
1.775
 20
1.35
 30
0.0
 40
0.25
  1
0 deg.
100
AcDbAttributeDefinition
  3
Choose the angle at which the dimension line is rotated.
  2
ANGLE
 70
     1
  0
POLYLINE
  5
3A0
100
AcDbEntity
  8
DIMENSIONS
  6
CONTINUOUS
 62
     7
100
AcDb2dPolyline
 66
     1
 10
0.0
 20
0.0
 30
0.0
 70
     1
  0
VERTEX
  5
3A1
100
AcDbEntity
  8
DIMENSIONS
  6
CONTINUOUS
 62
     7
100
AcDbVertex
100
AcDb2dVertex
 10
1.775
 20
1.788889
 30
0.0
  0
VERTEX
  5
3A2
100
AcDbEntity
  8
DIMENSIONS
  6
CONTINUOUS
 62
     7
100
AcDbVertex
100
AcDb2dVertex
 10
1.775
 20
2.044444
 30
0.0
  0
SEQEND
  5
3A3
100
AcDbEntity
  8
DIMENSIONS
  6
CONTINUOUS
 62
     7
  0
POLYLINE
  5
3A4
100
AcDbEntity
  8
DIMENSIONS
  6
CONTINUOUS
 62
     7
100
AcDb2dPolyline
 66
     1
 10
0.0
 20
0.0
 30
0.0
 70
     1
  0
VERTEX
  5
3A5
100
AcDbEntity
  8
DIMENSIONS
  6
CONTINUOUS
 62
     7
100
AcDbVertex
100
AcDb2dVertex
 10
3.275
 20
1.788889
 30
0.0
  0
VERTEX
  5
3A6
100
AcDbEntity
  8
DIMENSIONS
  6
CONTINUOUS
 62
     7
100
AcDbVertex
100
AcDb2dVertex
 10
3.275
 20
2.944444
 30
0.0
  0
SEQEND
  5
3A7
100
AcDbEntity
  8
DIMENSIONS
  6
CONTINUOUS
 62
     7
  0
SOLID
  5
3A8
100
AcDbEntity
  8
DIMENSIONS
100
AcDbTrace
 10
1.775
 20
1.9
 30
0.0
 11
1.86
 21
1.928333
 31
0.0
 12
1.86
 22
1.871667
 32
0.0
 13
1.86
 23
1.871667
 33
0.0
  0
POLYLINE
  5
3A9
100
AcDbEntity
  8
DIMENSIONS
  6
CONTINUOUS
 62
     7
100
AcDb2dPolyline
 66
     1
 10
0.0
 20
0.0
 30
0.0
  0
VERTEX
  5
3AA
100
AcDbEntity
  8
DIMENSIONS
  6
CONTINUOUS
 62
     7
100
AcDbVertex
100
AcDb2dVertex
 10
2.525
 20
1.9
 30
0.0
  0
VERTEX
  5
3AB
100
AcDbEntity
  8
DIMENSIONS
  6
CONTINUOUS
 62
     7
100
AcDbVertex
100
AcDb2dVertex
 10
1.775
 20
1.9
 30
0.0
  0
SEQEND
  5
3AC
100
AcDbEntity
  8
DIMENSIONS
  6
CONTINUOUS
 62
     7
  0
SOLID
  5
3AD
100
AcDbEntity
  8
DIMENSIONS
100
AcDbTrace
 10
3.275
 20
1.9
 30
0.0
 11
3.19
 21
1.871667
 31
0.0
 12
3.19
 22
1.928333
 32
0.0
 13
3.19
 23
1.928333
 33
0.0
  0
POLYLINE
  5
3AE
100
AcDbEntity
  8
DIMENSIONS
  6
CONTINUOUS
 62
     7
100
AcDb2dPolyline
 66
     1
 10
0.0
 20
0.0
 30
0.0
  0
VERTEX
  5
3AF
100
AcDbEntity
  8
DIMENSIONS
  6
CONTINUOUS
 62
     7
100
AcDbVertex
100
AcDb2dVertex
 10
2.525
 20
1.9
 30
0.0
  0
VERTEX
  5
3B0
100
AcDbEntity
  8
DIMENSIONS
  6
CONTINUOUS
 62
     7
100
AcDbVertex
100
AcDb2dVertex
 10
3.275
 20
1.9
 30
0.0
  0
SEQEND
  5
3B1
100
AcDbEntity
  8
DIMENSIONS
  6
CONTINUOUS
 62
     7
  0
TEXT
  5
3B2
100
AcDbEntity
  8
DIMENSIONS
 62
     7
100
AcDbText
 10
2.366435
 20
1.858333
 30
0.0
 40
0.111111
  1
1.50
  7
_DIMENSION
 72
     1
 11
2.525
 21
1.9
 31
0.0
100
AcDbText
 73
     2
  0
ENDBLK
  5
3B4
100
AcDbEntity
  8
0
100
AcDbBlockEnd
  0
BLOCK
  5
3BC
100
AcDbEntity
  8
0
100
AcDbBlockBegin
  2
SHEET_81
 70
    66
 10
2.7
 20
4.3
 30
0.0
  3
SHEET_81
  1

  0
TEXT
  5
3BE
100
AcDbEntity
  8
0
 62
     7
100
AcDbText
 10
2.368981
 20
4.443519
 30
0.0
 40
0.111111
  1
Graphite
  7
_NORMAL
 72
     1
 11
2.7
 21
4.485185
 31
0.0
100
AcDbText
 73
     2
  0
TEXT
  5
3BF
100
AcDbEntity
  8
0
 62
     7
100
AcDbText
 10
2.390972
 20
4.258333
 30
0.0
 40
0.111111
  1
pre-mix
  7
_NORMAL
 72
     1
 11
2.7
 21
4.3
 31
0.0
100
AcDbText
 73
     2
  0
TEXT
  5
3C0
100
AcDbEntity
  8
0
 62
     7
100
AcDbText
 10
2.464468
 20
4.073148
 30
0.0
 40
0.111111
  1
sleeve
  7
_NORMAL
 72
     1
 11
2.7
 21
4.114815
 31
0.0
100
AcDbText
 73
     2
  0
ENDBLK
  5
3C2
100
AcDbEntity
  8
0
100
AcDbBlockEnd
  0
BLOCK
  5
3C4
100
AcDbEntity
  8
0
100
AcDbBlockBegin
  2
BOX_CALLOUT_82
 70
    66
 10
5.0625
 20
6.5075
 30
0.0
  3
BOX_CALLOUT_82
  1

  0
POLYLINE
  5
3C5
100
AcDbEntity
  8
DIMENSIONS
  6
CONTINUOUS
 62
     7
100
AcDb2dPolyline
 66
     1
 10
0.0
 20
0.0
 30
0.0
  0
VERTEX
  5
3C6
100
AcDbEntity
  8
DIMENSIONS
  6
CONTINUOUS
 62
     7
100
AcDbVertex
100
AcDb2dVertex
 10
4.3
 20
5.32
 30
0.0
  0
VERTEX
  5
3C7
100
AcDbEntity
  8
DIMENSIONS
  6
CONTINUOUS
 62
     7
100
AcDbVertex
100
AcDb2dVertex
 10
4.370828
 20
5.368276
 30
0.0
  0
SEQEND
  5
3C8
100
AcDbEntity
  8
DIMENSIONS
  6
CONTINUOUS
 62
     7
  0
POLYLINE
  5
3C9
100
AcDbEntity
  8
DIMENSIONS
  6
CONTINUOUS
 62
     7
100
AcDb2dPolyline
 66
     1
 10
0.0
 20
0.0
 30
0.0
  0
VERTEX
  5
3CA
100
AcDbEntity
  8
DIMENSIONS
  6
CONTINUOUS
 62
     7
100
AcDbVertex
100
AcDb2dVertex
 10
5.825
 20
7.695
 30
0.0
  0
VERTEX
  5
3CB
100
AcDbEntity
  8
DIMENSIONS
  6
CONTINUOUS
 62
     7
100
AcDbVertex
100
AcDb2dVertex
 10
5.625
 20
7.695
 30
0.0
  0
VERTEX
  5
3CC
100
AcDbEntity
  8
DIMENSIONS
  6
CONTINUOUS
 62
     7
100
AcDbVertex
100
AcDb2dVertex
 10
4.3
 20
5.32
 30
0.0
  0
SEQEND
  5
3CD
100
AcDbEntity
  8
DIMENSIONS
  6
CONTINUOUS
 62
     7
  0
POLYLINE
  5
3CE
100
AcDbEntity
  8
DIMENSIONS
  6
CONTINUOUS
 62
     7
100
AcDb2dPolyline
 66
     1
 10
0.0
 20
0.0
 30
0.0
 70
     1
  0
VERTEX
  5
3CF
100
AcDbEntity
  8
DIMENSIONS
  6
CONTINUOUS
 62
     7
100
AcDbVertex
100
AcDb2dVertex
 10
5.825
 20
7.828333
 30
0.0
  0
VERTEX
  5
3D0
100
AcDbEntity
  8
DIMENSIONS
  6
CONTINUOUS
 62
     7
100
AcDbVertex
100
AcDb2dVertex
 10
5.825
 20
7.561667
 30
0.0
  0
VERTEX
  5
3D1
100
AcDbEntity
  8
DIMENSIONS
  6
CONTINUOUS
 62
     7
100
AcDbVertex
100
AcDb2dVertex
 10
6.701953
 20
7.561667
 30
0.0
  0
VERTEX
  5
3D2
100
AcDbEntity
  8
DIMENSIONS
  6
CONTINUOUS
 62
     7
100
AcDbVertex
100
AcDb2dVertex
 10
6.701953
 20
7.828333
 30
0.0
  0
SEQEND
  5
3D3
100
AcDbEntity
  8
DIMENSIONS
  6
CONTINUOUS
 62
     7
  0
TEXT
  5
3D4
100
AcDbEntity
  8
DIMENSIONS
 62
     7
100
AcDbText
 10
5.856069
 20
7.745926
 30
0.0
 40
0.111111
  1
Cardboard
  7
_GDT_CALLOUT
 72
     1
 11
6.263477
 21
7.787593
 31
0.0
100
AcDbText
 73
     2
  0
TEXT
  5
3D5
100
AcDbEntity
  8
DIMENSIONS
 62
     7
100
AcDbText
 10
6.10144
 20
7.560741
 30
0.0
 40
0.111111
  1
liner
  7
_GDT_CALLOUT
 72
     1
 11
6.263477
 21
7.602407
 31
0.0
100
AcDbText
 73
     2
  0
ENDBLK
  5
3D7
100
AcDbEntity
  8
0
100
AcDbBlockEnd
  0
BLOCK
  5
3D9
100
AcDbEntity
  8
0
100
AcDbBlockBegin
  2
BOX_CALLOUT_84
 70
    66
 10
6.85
 20
4.85
 30
0.0
  3
BOX_CALLOUT_84
  1

  0
POLYLINE
  5
3DA
100
AcDbEntity
  8
DIMENSIONS
  6
CONTINUOUS
 62
     7
100
AcDb2dPolyline
 66
     1
 10
0.0
 20
0.0
 30
0.0
  0
VERTEX
  5
3DB
100
AcDbEntity
  8
DIMENSIONS
  6
CONTINUOUS
 62
     7
100
AcDbVertex
100
AcDb2dVertex
 10
6.5
 20
4.8
 30
0.0
  0
VERTEX
  5
3DC
100
AcDbEntity
  8
DIMENSIONS
  6
CONTINUOUS
 62
     7
100
AcDbVertex
100
AcDb2dVertex
 10
6.582696
 20
4.777447
 30
0.0
  0
SEQEND
  5
3DD
100
AcDbEntity
  8
DIMENSIONS
  6
CONTINUOUS
 62
     7
  0
POLYLINE
  5
3DE
100
AcDbEntity
  8
DIMENSIONS
  6
CONTINUOUS
 62
     7
100
AcDb2dPolyline
 66
     1
 10
0.0
 20
0.0
 30
0.0
  0
VERTEX
  5
3DF
100
AcDbEntity
  8
DIMENSIONS
  6
CONTINUOUS
 62
     7
100
AcDbVertex
100
AcDb2dVertex
 10
7.2
 20
4.9
 30
0.0
  0
VERTEX
  5
3E0
100
AcDbEntity
  8
DIMENSIONS
  6
CONTINUOUS
 62
     7
100
AcDbVertex
100
AcDb2dVertex
 10
7.0
 20
4.9
 30
0.0
  0
VERTEX
  5
3E1
100
AcDbEntity
  8
DIMENSIONS
  6
CONTINUOUS
 62
     7
100
AcDbVertex
100
AcDb2dVertex
 10
6.5
 20
4.8
 30
0.0
  0
SEQEND
  5
3E2
100
AcDbEntity
  8
DIMENSIONS
  6
CONTINUOUS
 62
     7
  0
POLYLINE
  5
3E3
100
AcDbEntity
  8
DIMENSIONS
  6
CONTINUOUS
 62
     7
100
AcDb2dPolyline
 66
     1
 10
0.0
 20
0.0
 30
0.0
 70
     1
  0
VERTEX
  5
3E4
100
AcDbEntity
  8
DIMENSIONS
  6
CONTINUOUS
 62
     7
100
AcDbVertex
100
AcDb2dVertex
 10
7.2
 20
5.033333
 30
0.0
  0
VERTEX
  5
3E5
100
AcDbEntity
  8
DIMENSIONS
  6
CONTINUOUS
 62
     7
100
AcDbVertex
100
AcDb2dVertex
 10
7.2
 20
4.766667
 30
0.0
  0
VERTEX
  5
3E6
100
AcDbEntity
  8
DIMENSIONS
  6
CONTINUOUS
 62
     7
100
AcDbVertex
100
AcDb2dVertex
 10
7.694032
 20
4.766667
 30
0.0
  0
VERTEX
  5
3E7
100
AcDbEntity
  8
DIMENSIONS
  6
CONTINUOUS
 62
     7
100
AcDbVertex
100
AcDb2dVertex
 10
7.694032
 20
5.033333
 30
0.0
  0
SEQEND
  5
3E8
100
AcDbEntity
  8
DIMENSIONS
  6
CONTINUOUS
 62
     7
  0
TEXT
  5
3E9
100
AcDbEntity
  8
DIMENSIONS
 62
     7
100
AcDbText
 10
7.142618
 20
4.858333
 30
0.0
 40
0.111111
  1
Paraffin
  7
_GDT_CALLOUT
 72
     1
 11
7.447016
 21
4.9
 31
0.0
100
AcDbText
 73
     2
  0
ENDBLK
  5
3EB
100
AcDbEntity
  8
0
100
AcDbBlockEnd
  0
BLOCK
  5
405
100
AcDbEntity
  8
0
100
AcDbBlockBegin
  2
BOX_CALLOUT_87
 70
    66
 10
8.453605
 20
2.530891
 30
0.0
  3
BOX_CALLOUT_87
  1

  0
POLYLINE
  5
406
100
AcDbEntity
  8
DIMENSIONS
  6
CONTINUOUS
 62
     7
100
AcDb2dPolyline
 66
     1
 10
0.0
 20
0.0
 30
0.0
  0
VERTEX
  5
407
100
AcDbEntity
  8
DIMENSIONS
  6
CONTINUOUS
 62
     7
100
AcDbVertex
100
AcDb2dVertex
 10
9.18221
 20
3.461782
 30
0.0
  0
VERTEX
  5
408
100
AcDbEntity
  8
DIMENSIONS
  6
CONTINUOUS
 62
     7
100
AcDbVertex
100
AcDb2dVertex
 10
9.107536
 20
3.419697
 30
0.0
  0
SEQEND
  5
409
100
AcDbEntity
  8
DIMENSIONS
  6
CONTINUOUS
 62
     7
  0
POLYLINE
  5
40A
100
AcDbEntity
  8
DIMENSIONS
  6
CONTINUOUS
 62
     7
100
AcDb2dPolyline
 66
     1
 10
0.0
 20
0.0
 30
0.0
  0
VERTEX
  5
40B
100
AcDbEntity
  8
DIMENSIONS
  6
CONTINUOUS
 62
     7
100
AcDbVertex
100
AcDb2dVertex
 10
7.725
 20
1.6
 30
0.0
  0
VERTEX
  5
40C
100
AcDbEntity
  8
DIMENSIONS
  6
CONTINUOUS
 62
     7
100
AcDbVertex
100
AcDb2dVertex
 10
7.925
 20
1.6
 30
0.0
  0
VERTEX
  5
40D
100
AcDbEntity
  8
DIMENSIONS
  6
CONTINUOUS
 62
     7
100
AcDbVertex
100
AcDb2dVertex
 10
9.18221
 20
3.461782
 30
0.0
  0
SEQEND
  5
40E
100
AcDbEntity
  8
DIMENSIONS
  6
CONTINUOUS
 62
     7
  0
POLYLINE
  5
40F
100
AcDbEntity
  8
DIMENSIONS
  6
CONTINUOUS
 62
     7
100
AcDb2dPolyline
 66
     1
 10
0.0
 20
0.0
 30
0.0
 70
     1
  0
VERTEX
  5
410
100
AcDbEntity
  8
DIMENSIONS
  6
CONTINUOUS
 62
     7
100
AcDbVertex
100
AcDb2dVertex
 10
7.725
 20
1.466667
 30
0.0
  0
VERTEX
  5
411
100
AcDbEntity
  8
DIMENSIONS
  6
CONTINUOUS
 62
     7
100
AcDbVertex
100
AcDb2dVertex
 10
7.725
 20
1.733333
 30
0.0
  0
VERTEX
  5
412
100
AcDbEntity
  8
DIMENSIONS
  6
CONTINUOUS
 62
     7
100
AcDbVertex
100
AcDb2dVertex
 10
6.835677
 20
1.733333
 30
0.0
  0
VERTEX
  5
413
100
AcDbEntity
  8
DIMENSIONS
  6
CONTINUOUS
 62
     7
100
AcDbVertex
100
AcDb2dVertex
 10
6.835677
 20
1.466667
 30
0.0
  0
SEQEND
  5
414
100
AcDbEntity
  8
DIMENSIONS
  6
CONTINUOUS
 62
     7
  0
TEXT
  5
415
100
AcDbEntity
  8
DIMENSIONS
 62
     7
100
AcDbText
 10
6.94932
 20
1.650926
 30
0.0
 40
0.111111
  1
Graphite
  7
_GDT_CALLOUT
 72
     1
 11
7.280339
 21
1.692593
 31
0.0
100
AcDbText
 73
     2
  0
TEXT
  5
416
100
AcDbEntity
  8
DIMENSIONS
 62
     7
100
AcDbText
 10
7.036126
 20
1.465741
 30
0.0
 40
0.111111
  1
nozzle
  7
_GDT_CALLOUT
 72
     1
 11
7.280339
 21
1.507407
 31
0.0
100
AcDbText
 73
     2
  0
ENDBLK
  5
418
100
AcDbEntity
  8
0
100
AcDbBlockEnd
  0
BLOCK
  5
41A
100
AcDbEntity
  8
0
100
AcDbBlockBegin
  2
FILLET
 70
    66
 10
2.0625
 20
5.5725
 30
0.0
  3
FILLET
  1

  0
SOLID
  5
41C
100
AcDbEntity
  8
ANNOTATIONS
 62
     7
100
AcDbTrace
 10
1.965
 20
5.475
 30
0.0
 11
2.16
 21
5.475
 31
0.0
 12
1.965
 22
5.67
 32
0.0
 13
1.965
 23
5.67
 33
0.0
  0
POLYLINE
  5
41D
100
AcDbEntity
  8
ANNOTATIONS
  6
CONTINUOUS
 62
     7
100
AcDb2dPolyline
 66
     1
 10
0.0
 20
0.0
 30
0.0
 70
     1
  0
VERTEX
  5
41E
100
AcDbEntity
  8
ANNOTATIONS
  6
CONTINUOUS
 62
     7
100
AcDbVertex
100
AcDb2dVertex
 10
1.965
 20
5.67
 30
0.0
  0
VERTEX
  5
41F
100
AcDbEntity
  8
ANNOTATIONS
  6
CONTINUOUS
 62
     7
100
AcDbVertex
100
AcDb2dVertex
 10
1.965
 20
5.475
 30
0.0
  0
VERTEX
  5
420
100
AcDbEntity
  8
ANNOTATIONS
  6
CONTINUOUS
 62
     7
100
AcDbVertex
100
AcDb2dVertex
 10
2.16
 20
5.475
 30
0.0
  0
SEQEND
  5
421
100
AcDbEntity
  8
ANNOTATIONS
  6
CONTINUOUS
 62
     7
  0
ENDBLK
  5
423
100
AcDbEntity
  8
0
100
AcDbBlockEnd
  0
BLOCK
  5
425
100
AcDbEntity
  8
0
100
AcDbBlockBegin
  2
FILLET_212
 70
    66
 10
2.06
 20
2.99
 30
0.0
  3
FILLET_212
  1

  0
SOLID
  5
426
100
AcDbEntity
  8
ANNOTATIONS
 62
     7
100
AcDbTrace
 10
1.9625
 20
3.0875
 30
0.0
 11
1.9625
 21
2.8925
 31
0.0
 12
2.1575
 22
3.0875
 32
0.0
 13
2.1575
 23
3.0875
 33
0.0
  0
POLYLINE
  5
427
100
AcDbEntity
  8
ANNOTATIONS
  6
CONTINUOUS
 62
     7
100
AcDb2dPolyline
 66
     1
 10
0.0
 20
0.0
 30
0.0
 70
     1
  0
VERTEX
  5
428
100
AcDbEntity
  8
ANNOTATIONS
  6
CONTINUOUS
 62
     7
100
AcDbVertex
100
AcDb2dVertex
 10
2.1575
 20
3.0875
 30
0.0
  0
VERTEX
  5
429
100
AcDbEntity
  8
ANNOTATIONS
  6
CONTINUOUS
 62
     7
100
AcDbVertex
100
AcDb2dVertex
 10
1.9625
 20
3.0875
 30
0.0
  0
VERTEX
  5
42A
100
AcDbEntity
  8
ANNOTATIONS
  6
CONTINUOUS
 62
     7
100
AcDbVertex
100
AcDb2dVertex
 10
1.9625
 20
2.8925
 30
0.0
  0
SEQEND
  5
42B
100
AcDbEntity
  8
ANNOTATIONS
  6
CONTINUOUS
 62
     7
  0
ENDBLK
  5
42D
100
AcDbEntity
  8
0
100
AcDbBlockEnd
  0
BLOCK
  5
42F
100
AcDbEntity
  8
0
100
AcDbBlockBegin
  2
FILLET_213
 70
    66
 10
9.465
 20
2.99
 30
0.0
  3
FILLET_213
  1

  0
SOLID
  5
430
100
AcDbEntity
  8
ANNOTATIONS
 62
     7
100
AcDbTrace
 10
9.5625
 20
3.0875
 30
0.0
 11
9.3675
 21
3.0875
 31
0.0
 12
9.5625
 22
2.8925
 32
0.0
 13
9.5625
 23
2.8925
 33
0.0
  0
POLYLINE
  5
431
100
AcDbEntity
  8
ANNOTATIONS
  6
CONTINUOUS
 62
     7
100
AcDb2dPolyline
 66
     1
 10
0.0
 20
0.0
 30
0.0
 70
     1
  0
VERTEX
  5
432
100
AcDbEntity
  8
ANNOTATIONS
  6
CONTINUOUS
 62
     7
100
AcDbVertex
100
AcDb2dVertex
 10
9.5625
 20
2.8925
 30
0.0
  0
VERTEX
  5
433
100
AcDbEntity
  8
ANNOTATIONS
  6
CONTINUOUS
 62
     7
100
AcDbVertex
100
AcDb2dVertex
 10
9.5625
 20
3.0875
 30
0.0
  0
VERTEX
  5
434
100
AcDbEntity
  8
ANNOTATIONS
  6
CONTINUOUS
 62
     7
100
AcDbVertex
100
AcDb2dVertex
 10
9.3675
 20
3.0875
 30
0.0
  0
SEQEND
  5
435
100
AcDbEntity
  8
ANNOTATIONS
  6
CONTINUOUS
 62
     7
  0
ENDBLK
  5
437
100
AcDbEntity
  8
0
100
AcDbBlockEnd
  0
BLOCK
  5
439
100
AcDbEntity
  8
0
100
AcDbBlockBegin
  2
FILLET_214
 70
    66
 10
9.465
 20
5.57
 30
0.0
  3
FILLET_214
  1

  0
SOLID
  5
43A
100
AcDbEntity
  8
ANNOTATIONS
 62
     7
100
AcDbTrace
 10
9.5625
 20
5.4725
 30
0.0
 11
9.5625
 21
5.6675
 31
0.0
 12
9.3675
 22
5.4725
 32
0.0
 13
9.3675
 23
5.4725
 33
0.0
  0
POLYLINE
  5
43B
100
AcDbEntity
  8
ANNOTATIONS
  6
CONTINUOUS
 62
     7
100
AcDb2dPolyline
 66
     1
 10
0.0
 20
0.0
 30
0.0
 70
     1
  0
VERTEX
  5
43C
100
AcDbEntity
  8
ANNOTATIONS
  6
CONTINUOUS
 62
     7
100
AcDbVertex
100
AcDb2dVertex
 10
9.3675
 20
5.4725
 30
0.0
  0
VERTEX
  5
43D
100
AcDbEntity
  8
ANNOTATIONS
  6
CONTINUOUS
 62
     7
100
AcDbVertex
100
AcDb2dVertex
 10
9.5625
 20
5.4725
 30
0.0
  0
VERTEX
  5
43E
100
AcDbEntity
  8
ANNOTATIONS
  6
CONTINUOUS
 62
     7
100
AcDbVertex
100
AcDb2dVertex
 10
9.5625
 20
5.6675
 30
0.0
  0
SEQEND
  5
43F
100
AcDbEntity
  8
ANNOTATIONS
  6
CONTINUOUS
 62
     7
  0
ENDBLK
  5
441
100
AcDbEntity
  8
0
100
AcDbBlockEnd
  0
BLOCK
  5
443
100
AcDbEntity
  8
0
100
AcDbBlockBegin
  2
SHEET_235
 70
    66
 10
1.62425
 20
4.275
 30
0.0
  3
SHEET_235
  1

  0
POLYLINE
  5
444
100
AcDbEntity
  8
0
  6
CONTINUOUS
 62
     7
100
AcDb2dPolyline
 66
     1
 10
0.0
 20
0.0
 30
0.0
 70
     1
  0
VERTEX
  5
445
100
AcDbEntity
  8
0
  6
CONTINUOUS
 62
     7
100
AcDbVertex
100
AcDb2dVertex
 10
1.7485
 20
6.45
 30
0.0
  0
VERTEX
  5
446
100
AcDbEntity
  8
0
  6
CONTINUOUS
 62
     7
100
AcDbVertex
100
AcDb2dVertex
 10
1.436
 20
6.45
 30
0.0
  0
VERTEX
  5
447
100
AcDbEntity
  8
0
  6
CONTINUOUS
 62
     7
100
AcDbVertex
100
AcDb2dVertex
 10
1.436
 20
2.1
 30
0.0
  0
VERTEX
  5
448
100
AcDbEntity
  8
0
  6
CONTINUOUS
 62
     7
100
AcDbVertex
100
AcDb2dVertex
 10
1.7485
 20
2.1
 30
0.0
  0
VERTEX
  5
449
100
AcDbEntity
  8
0
  6
CONTINUOUS
 62
     7
100
AcDbVertex
100
AcDb2dVertex
 10
1.7485
 20
3.49
 30
0.0
  0
VERTEX
  5
44A
100
AcDbEntity
  8
0
  6
CONTINUOUS
 62
     7
100
AcDbVertex
100
AcDb2dVertex
 10
1.825
 20
3.49
 30
0.0
  0
VERTEX
  5
44B
100
AcDbEntity
  8
0
  6
CONTINUOUS
 62
     7
100
AcDbVertex
100
AcDb2dVertex
 10
1.825
 20
5.06
 30
0.0
  0
VERTEX
  5
44C
100
AcDbEntity
  8
0
  6
CONTINUOUS
 62
     7
100
AcDbVertex
100
AcDb2dVertex
 10
1.7485
 20
5.06
 30
0.0
  0
SEQEND
  5
44D
100
AcDbEntity
  8
0
  6
CONTINUOUS
 62
     7
  0
POLYLINE
  5
44E
100
AcDbEntity
  8
0
  6
CONTINUOUS
 62
     7
100
AcDb2dPolyline
 66
     1
 10
0.0
 20
0.0
 30
0.0
  0
VERTEX
  5
44F
100
AcDbEntity
  8
0
  6
CONTINUOUS
 62
     7
100
AcDbVertex
100
AcDb2dVertex
 10
1.436
 20
6.25
 30
0.0
  0
VERTEX
  5
450
100
AcDbEntity
  8
0
  6
CONTINUOUS
 62
     7
100
AcDbVertex
100
AcDb2dVertex
 10
1.686
 20
6.45
 30
0.0
  0
SEQEND
  5
451
100
AcDbEntity
  8
0
  6
CONTINUOUS
 62
     7
  0
POLYLINE
  5
452
100
AcDbEntity
  8
0
  6
CONTINUOUS
 62
     7
100
AcDb2dPolyline
 66
     1
 10
0.0
 20
0.0
 30
0.0
  0
VERTEX
  5
453
100
AcDbEntity
  8
0
  6
CONTINUOUS
 62
     7
100
AcDbVertex
100
AcDb2dVertex
 10
1.436
 20
6.027632
 30
0.0
  0
VERTEX
  5
454
100
AcDbEntity
  8
0
  6
CONTINUOUS
 62
     7
100
AcDbVertex
100
AcDb2dVertex
 10
1.7485
 20
6.277632
 30
0.0
  0
SEQEND
  5
455
100
AcDbEntity
  8
0
  6
CONTINUOUS
 62
     7
  0
POLYLINE
  5
456
100
AcDbEntity
  8
0
  6
CONTINUOUS
 62
     7
100
AcDb2dPolyline
 66
     1
 10
0.0
 20
0.0
 30
0.0
  0
VERTEX
  5
457
100
AcDbEntity
  8
0
  6
CONTINUOUS
 62
     7
100
AcDbVertex
100
AcDb2dVertex
 10
1.436
 20
5.805263
 30
0.0
  0
VERTEX
  5
458
100
AcDbEntity
  8
0
  6
CONTINUOUS
 62
     7
100
AcDbVertex
100
AcDb2dVertex
 10
1.7485
 20
6.055263
 30
0.0
  0
SEQEND
  5
459
100
AcDbEntity
  8
0
  6
CONTINUOUS
 62
     7
  0
POLYLINE
  5
45A
100
AcDbEntity
  8
0
  6
CONTINUOUS
 62
     7
100
AcDb2dPolyline
 66
     1
 10
0.0
 20
0.0
 30
0.0
  0
VERTEX
  5
45B
100
AcDbEntity
  8
0
  6
CONTINUOUS
 62
     7
100
AcDbVertex
100
AcDb2dVertex
 10
1.436
 20
5.582895
 30
0.0
  0
VERTEX
  5
45C
100
AcDbEntity
  8
0
  6
CONTINUOUS
 62
     7
100
AcDbVertex
100
AcDb2dVertex
 10
1.7485
 20
5.832895
 30
0.0
  0
SEQEND
  5
45D
100
AcDbEntity
  8
0
  6
CONTINUOUS
 62
     7
  0
POLYLINE
  5
45E
100
AcDbEntity
  8
0
  6
CONTINUOUS
 62
     7
100
AcDb2dPolyline
 66
     1
 10
0.0
 20
0.0
 30
0.0
  0
VERTEX
  5
45F
100
AcDbEntity
  8
0
  6
CONTINUOUS
 62
     7
100
AcDbVertex
100
AcDb2dVertex
 10
1.436
 20
5.360526
 30
0.0
  0
VERTEX
  5
460
100
AcDbEntity
  8
0
  6
CONTINUOUS
 62
     7
100
AcDbVertex
100
AcDb2dVertex
 10
1.7485
 20
5.610526
 30
0.0
  0
SEQEND
  5
461
100
AcDbEntity
  8
0
  6
CONTINUOUS
 62
     7
  0
POLYLINE
  5
462
100
AcDbEntity
  8
0
  6
CONTINUOUS
 62
     7
100
AcDb2dPolyline
 66
     1
 10
0.0
 20
0.0
 30
0.0
  0
VERTEX
  5
463
100
AcDbEntity
  8
0
  6
CONTINUOUS
 62
     7
100
AcDbVertex
100
AcDb2dVertex
 10
1.436
 20
5.138158
 30
0.0
  0
VERTEX
  5
464
100
AcDbEntity
  8
0
  6
CONTINUOUS
 62
     7
100
AcDbVertex
100
AcDb2dVertex
 10
1.7485
 20
5.388158
 30
0.0
  0
SEQEND
  5
465
100
AcDbEntity
  8
0
  6
CONTINUOUS
 62
     7
  0
POLYLINE
  5
466
100
AcDbEntity
  8
0
  6
CONTINUOUS
 62
     7
100
AcDb2dPolyline
 66
     1
 10
0.0
 20
0.0
 30
0.0
  0
VERTEX
  5
467
100
AcDbEntity
  8
0
  6
CONTINUOUS
 62
     7
100
AcDbVertex
100
AcDb2dVertex
 10
1.436
 20
4.915789
 30
0.0
  0
VERTEX
  5
468
100
AcDbEntity
  8
0
  6
CONTINUOUS
 62
     7
100
AcDbVertex
100
AcDb2dVertex
 10
1.7485
 20
5.165789
 30
0.0
  0
SEQEND
  5
469
100
AcDbEntity
  8
0
  6
CONTINUOUS
 62
     7
  0
POLYLINE
  5
46A
100
AcDbEntity
  8
0
  6
CONTINUOUS
 62
     7
100
AcDb2dPolyline
 66
     1
 10
0.0
 20
0.0
 30
0.0
  0
VERTEX
  5
46B
100
AcDbEntity
  8
0
  6
CONTINUOUS
 62
     7
100
AcDbVertex
100
AcDb2dVertex
 10
1.4235
 20
4.668421
 30
0.0
  0
VERTEX
  5
46C
100
AcDbEntity
  8
0
  6
CONTINUOUS
 62
     7
100
AcDbVertex
100
AcDb2dVertex
 10
1.825
 20
4.99
 30
0.0
  0
SEQEND
  5
46D
100
AcDbEntity
  8
0
  6
CONTINUOUS
 62
     7
  0
POLYLINE
  5
46E
100
AcDbEntity
  8
0
  6
CONTINUOUS
 62
     7
100
AcDb2dPolyline
 66
     1
 10
0.0
 20
0.0
 30
0.0
  0
VERTEX
  5
46F
100
AcDbEntity
  8
0
  6
CONTINUOUS
 62
     7
100
AcDbVertex
100
AcDb2dVertex
 10
1.4235
 20
4.433553
 30
0.0
  0
VERTEX
  5
470
100
AcDbEntity
  8
0
  6
CONTINUOUS
 62
     7
100
AcDbVertex
100
AcDb2dVertex
 10
1.825
 20
4.75
 30
0.0
  0
SEQEND
  5
471
100
AcDbEntity
  8
0
  6
CONTINUOUS
 62
     7
  0
POLYLINE
  5
472
100
AcDbEntity
  8
0
  6
CONTINUOUS
 62
     7
100
AcDb2dPolyline
 66
     1
 10
0.0
 20
0.0
 30
0.0
  0
VERTEX
  5
473
100
AcDbEntity
  8
0
  6
CONTINUOUS
 62
     7
100
AcDbVertex
100
AcDb2dVertex
 10
1.4235
 20
4.223684
 30
0.0
  0
VERTEX
  5
474
100
AcDbEntity
  8
0
  6
CONTINUOUS
 62
     7
100
AcDbVertex
100
AcDb2dVertex
 10
1.825
 20
4.55
 30
0.0
  0
SEQEND
  5
475
100
AcDbEntity
  8
0
  6
CONTINUOUS
 62
     7
  0
POLYLINE
  5
476
100
AcDbEntity
  8
0
  6
CONTINUOUS
 62
     7
100
AcDb2dPolyline
 66
     1
 10
0.0
 20
0.0
 30
0.0
  0
VERTEX
  5
477
100
AcDbEntity
  8
0
  6
CONTINUOUS
 62
     7
100
AcDbVertex
100
AcDb2dVertex
 10
1.436
 20
4.001316
 30
0.0
  0
VERTEX
  5
478
100
AcDbEntity
  8
0
  6
CONTINUOUS
 62
     7
100
AcDbVertex
100
AcDb2dVertex
 10
1.825
 20
4.32
 30
0.0
  0
SEQEND
  5
479
100
AcDbEntity
  8
0
  6
CONTINUOUS
 62
     7
  0
POLYLINE
  5
47A
100
AcDbEntity
  8
0
  6
CONTINUOUS
 62
     7
100
AcDb2dPolyline
 66
     1
 10
0.0
 20
0.0
 30
0.0
  0
VERTEX
  5
47B
100
AcDbEntity
  8
0
  6
CONTINUOUS
 62
     7
100
AcDbVertex
100
AcDb2dVertex
 10
1.436
 20
3.766447
 30
0.0
  0
VERTEX
  5
47C
100
AcDbEntity
  8
0
  6
CONTINUOUS
 62
     7
100
AcDbVertex
100
AcDb2dVertex
 10
1.825
 20
4.08
 30
0.0
  0
SEQEND
  5
47D
100
AcDbEntity
  8
0
  6
CONTINUOUS
 62
     7
  0
POLYLINE
  5
47E
100
AcDbEntity
  8
0
  6
CONTINUOUS
 62
     7
100
AcDb2dPolyline
 66
     1
 10
0.0
 20
0.0
 30
0.0
  0
VERTEX
  5
47F
100
AcDbEntity
  8
0
  6
CONTINUOUS
 62
     7
100
AcDbVertex
100
AcDb2dVertex
 10
1.436
 20
3.556579
 30
0.0
  0
VERTEX
  5
480
100
AcDbEntity
  8
0
  6
CONTINUOUS
 62
     7
100
AcDbVertex
100
AcDb2dVertex
 10
1.825
 20
3.87
 30
0.0
  0
SEQEND
  5
481
100
AcDbEntity
  8
0
  6
CONTINUOUS
 62
     7
  0
POLYLINE
  5
482
100
AcDbEntity
  8
0
  6
CONTINUOUS
 62
     7
100
AcDb2dPolyline
 66
     1
 10
0.0
 20
0.0
 30
0.0
  0
VERTEX
  5
483
100
AcDbEntity
  8
0
  6
CONTINUOUS
 62
     7
100
AcDbVertex
100
AcDb2dVertex
 10
1.433751
 20
3.357001
 30
0.0
  0
VERTEX
  5
484
100
AcDbEntity
  8
0
  6
CONTINUOUS
 62
     7
100
AcDbVertex
100
AcDb2dVertex
 10
1.825
 20
3.67
 30
0.0
  0
SEQEND
  5
485
100
AcDbEntity
  8
0
  6
CONTINUOUS
 62
     7
  0
POLYLINE
  5
486
100
AcDbEntity
  8
0
  6
CONTINUOUS
 62
     7
100
AcDb2dPolyline
 66
     1
 10
0.0
 20
0.0
 30
0.0
  0
VERTEX
  5
487
100
AcDbEntity
  8
0
  6
CONTINUOUS
 62
     7
100
AcDbVertex
100
AcDb2dVertex
 10
1.436
 20
3.149342
 30
0.0
  0
VERTEX
  5
488
100
AcDbEntity
  8
0
  6
CONTINUOUS
 62
     7
100
AcDbVertex
100
AcDb2dVertex
 10
1.7485
 20
3.399342
 30
0.0
  0
SEQEND
  5
489
100
AcDbEntity
  8
0
  6
CONTINUOUS
 62
     7
  0
POLYLINE
  5
48A
100
AcDbEntity
  8
0
  6
CONTINUOUS
 62
     7
100
AcDb2dPolyline
 66
     1
 10
0.0
 20
0.0
 30
0.0
  0
VERTEX
  5
48B
100
AcDbEntity
  8
0
  6
CONTINUOUS
 62
     7
100
AcDbVertex
100
AcDb2dVertex
 10
1.436
 20
2.914474
 30
0.0
  0
VERTEX
  5
48C
100
AcDbEntity
  8
0
  6
CONTINUOUS
 62
     7
100
AcDbVertex
100
AcDb2dVertex
 10
1.7485
 20
3.164474
 30
0.0
  0
SEQEND
  5
48D
100
AcDbEntity
  8
0
  6
CONTINUOUS
 62
     7
  0
POLYLINE
  5
48E
100
AcDbEntity
  8
0
  6
CONTINUOUS
 62
     7
100
AcDb2dPolyline
 66
     1
 10
0.0
 20
0.0
 30
0.0
  0
VERTEX
  5
48F
100
AcDbEntity
  8
0
  6
CONTINUOUS
 62
     7
100
AcDbVertex
100
AcDb2dVertex
 10
1.436
 20
2.692105
 30
0.0
  0
VERTEX
  5
490
100
AcDbEntity
  8
0
  6
CONTINUOUS
 62
     7
100
AcDbVertex
100
AcDb2dVertex
 10
1.7485
 20
2.942105
 30
0.0
  0
SEQEND
  5
491
100
AcDbEntity
  8
0
  6
CONTINUOUS
 62
     7
  0
POLYLINE
  5
492
100
AcDbEntity
  8
0
  6
CONTINUOUS
 62
     7
100
AcDb2dPolyline
 66
     1
 10
0.0
 20
0.0
 30
0.0
  0
VERTEX
  5
493
100
AcDbEntity
  8
0
  6
CONTINUOUS
 62
     7
100
AcDbVertex
100
AcDb2dVertex
 10
1.436
 20
2.469737
 30
0.0
  0
VERTEX
  5
494
100
AcDbEntity
  8
0
  6
CONTINUOUS
 62
     7
100
AcDbVertex
100
AcDb2dVertex
 10
1.7485
 20
2.719737
 30
0.0
  0
SEQEND
  5
495
100
AcDbEntity
  8
0
  6
CONTINUOUS
 62
     7
  0
POLYLINE
  5
496
100
AcDbEntity
  8
0
  6
CONTINUOUS
 62
     7
100
AcDb2dPolyline
 66
     1
 10
0.0
 20
0.0
 30
0.0
  0
VERTEX
  5
497
100
AcDbEntity
  8
0
  6
CONTINUOUS
 62
     7
100
AcDbVertex
100
AcDb2dVertex
 10
1.436
 20
2.247368
 30
0.0
  0
VERTEX
  5
498
100
AcDbEntity
  8
0
  6
CONTINUOUS
 62
     7
100
AcDbVertex
100
AcDb2dVertex
 10
1.7485
 20
2.497368
 30
0.0
  0
SEQEND
  5
499
100
AcDbEntity
  8
0
  6
CONTINUOUS
 62
     7
  0
POLYLINE
  5
49A
100
AcDbEntity
  8
0
  6
CONTINUOUS
 62
     7
100
AcDb2dPolyline
 66
     1
 10
0.0
 20
0.0
 30
0.0
  0
VERTEX
  5
49B
100
AcDbEntity
  8
0
  6
CONTINUOUS
 62
     7
100
AcDbVertex
100
AcDb2dVertex
 10
1.536
 20
2.1
 30
0.0
  0
VERTEX
  5
49C
100
AcDbEntity
  8
0
  6
CONTINUOUS
 62
     7
100
AcDbVertex
100
AcDb2dVertex
 10
1.7485
 20
2.27
 30
0.0
  0
SEQEND
  5
49D
100
AcDbEntity
  8
0
  6
CONTINUOUS
 62
     7
  0
ENDBLK
  5
49F
100
AcDbEntity
  8
0
100
AcDbBlockEnd
  0
BLOCK
  5
4A1
100
AcDbEntity
  8
0
100
AcDbBlockBegin
  2
SHEET_297
 70
    66
 10
9.442758
 20
4.927646
 30
0.0
  3
SHEET_297
  1

  0
POLYLINE
  5
4A2
100
AcDbEntity
  8
0
  6
CONTINUOUS
 62
     7
100
AcDb2dPolyline
 66
     1
 10
0.0
 20
0.0
 30
0.0
  0
VERTEX
  5
4A3
100
AcDbEntity
  8
0
  6
CONTINUOUS
 62
     7
100
AcDbVertex
100
AcDb2dVertex
 10
9.373016
 20
4.535293
 30
0.0
  0
VERTEX
  5
4A4
100
AcDbEntity
  8
0
  6
CONTINUOUS
 62
     7
100
AcDbVertex
100
AcDb2dVertex
 10
9.09444
 20
4.777916
 30
0.0
  0
SEQEND
  5
4A5
100
AcDbEntity
  8
0
  6
CONTINUOUS
 62
     7
  0
POLYLINE
  5
4A6
100
AcDbEntity
  8
0
  6
CONTINUOUS
 62
     7
100
AcDb2dPolyline
 66
     1
 10
0.0
 20
0.0
 30
0.0
  0
VERTEX
  5
4A7
100
AcDbEntity
  8
0
  6
CONTINUOUS
 62
     7
100
AcDbVertex
100
AcDb2dVertex
 10
9.443016
 20
4.535293
 30
0.0
  0
VERTEX
  5
4A8
100
AcDbEntity
  8
0
  6
CONTINUOUS
 62
     7
100
AcDbVertex
100
AcDb2dVertex
 10
8.94156
 20
4.975737
 30
0.0
  0
SEQEND
  5
4A9
100
AcDbEntity
  8
0
  6
CONTINUOUS
 62
     7
  0
POLYLINE
  5
4AA
100
AcDbEntity
  8
0
  6
CONTINUOUS
 62
     7
100
AcDb2dPolyline
 66
     1
 10
0.0
 20
0.0
 30
0.0
  0
VERTEX
  5
4AB
100
AcDbEntity
  8
0
  6
CONTINUOUS
 62
     7
100
AcDbVertex
100
AcDb2dVertex
 10
9.513016
 20
4.535293
 30
0.0
  0
VERTEX
  5
4AC
100
AcDbEntity
  8
0
  6
CONTINUOUS
 62
     7
100
AcDbVertex
100
AcDb2dVertex
 10
8.788404
 20
5.173913
 30
0.0
  0
SEQEND
  5
4AD
100
AcDbEntity
  8
0
  6
CONTINUOUS
 62
     7
  0
POLYLINE
  5
4AE
100
AcDbEntity
  8
0
  6
CONTINUOUS
 62
     7
100
AcDb2dPolyline
 66
     1
 10
0.0
 20
0.0
 30
0.0
  0
VERTEX
  5
4AF
100
AcDbEntity
  8
0
  6
CONTINUOUS
 62
     7
100
AcDbVertex
100
AcDb2dVertex
 10
9.563425
 20
4.559044
 30
0.0
  0
VERTEX
  5
4B0
100
AcDbEntity
  8
0
  6
CONTINUOUS
 62
     7
100
AcDbVertex
100
AcDb2dVertex
 10
8.760516
 20
5.26
 30
0.0
  0
SEQEND
  5
4B1
100
AcDbEntity
  8
0
  6
CONTINUOUS
 62
     7
  0
POLYLINE
  5
4B2
100
AcDbEntity
  8
0
  6
CONTINUOUS
 62
     7
100
AcDb2dPolyline
 66
     1
 10
0.0
 20
0.0
 30
0.0
  0
VERTEX
  5
4B3
100
AcDbEntity
  8
0
  6
CONTINUOUS
 62
     7
100
AcDbVertex
100
AcDb2dVertex
 10
9.607352
 20
4.584863
 30
0.0
  0
VERTEX
  5
4B4
100
AcDbEntity
  8
0
  6
CONTINUOUS
 62
     7
100
AcDbVertex
100
AcDb2dVertex
 10
8.813016
 20
5.28
 30
0.0
  0
SEQEND
  5
4B5
100
AcDbEntity
  8
0
  6
CONTINUOUS
 62
     7
  0
POLYLINE
  5
4B6
100
AcDbEntity
  8
0
  6
CONTINUOUS
 62
     7
100
AcDb2dPolyline
 66
     1
 10
0.0
 20
0.0
 30
0.0
  0
VERTEX
  5
4B7
100
AcDbEntity
  8
0
  6
CONTINUOUS
 62
     7
100
AcDbVertex
100
AcDb2dVertex
 10
9.655435
 20
4.613125
 30
0.0
  0
VERTEX
  5
4B8
100
AcDbEntity
  8
0
  6
CONTINUOUS
 62
     7
100
AcDbVertex
100
AcDb2dVertex
 10
8.893016
 20
5.28
 30
0.0
  0
SEQEND
  5
4B9
100
AcDbEntity
  8
0
  6
CONTINUOUS
 62
     7
  0
POLYLINE
  5
4BA
100
AcDbEntity
  8
0
  6
CONTINUOUS
 62
     7
100
AcDb2dPolyline
 66
     1
 10
0.0
 20
0.0
 30
0.0
  0
VERTEX
  5
4BB
100
AcDbEntity
  8
0
  6
CONTINUOUS
 62
     7
100
AcDbVertex
100
AcDb2dVertex
 10
9.701985
 20
4.640487
 30
0.0
  0
VERTEX
  5
4BC
100
AcDbEntity
  8
0
  6
CONTINUOUS
 62
     7
100
AcDbVertex
100
AcDb2dVertex
 10
8.973016
 20
5.28
 30
0.0
  0
SEQEND
  5
4BD
100
AcDbEntity
  8
0
  6
CONTINUOUS
 62
     7
  0
POLYLINE
  5
4BE
100
AcDbEntity
  8
0
  6
CONTINUOUS
 62
     7
100
AcDb2dPolyline
 66
     1
 10
0.0
 20
0.0
 30
0.0
  0
VERTEX
  5
4BF
100
AcDbEntity
  8
0
  6
CONTINUOUS
 62
     7
100
AcDbVertex
100
AcDb2dVertex
 10
9.750834
 20
4.669199
 30
0.0
  0
VERTEX
  5
4C0
100
AcDbEntity
  8
0
  6
CONTINUOUS
 62
     7
100
AcDbVertex
100
AcDb2dVertex
 10
9.018016
 20
5.315
 30
0.0
  0
SEQEND
  5
4C1
100
AcDbEntity
  8
0
  6
CONTINUOUS
 62
     7
  0
POLYLINE
  5
4C2
100
AcDbEntity
  8
0
  6
CONTINUOUS
 62
     7
100
AcDb2dPolyline
 66
     1
 10
0.0
 20
0.0
 30
0.0
  0
VERTEX
  5
4C3
100
AcDbEntity
  8
0
  6
CONTINUOUS
 62
     7
100
AcDbVertex
100
AcDb2dVertex
 10
9.801654
 20
4.69907
 30
0.0
  0
VERTEX
  5
4C4
100
AcDbEntity
  8
0
  6
CONTINUOUS
 62
     7
100
AcDbVertex
100
AcDb2dVertex
 10
9.145977
 20
5.2756
 30
0.0
  0
SEQEND
  5
4C5
100
AcDbEntity
  8
0
  6
CONTINUOUS
 62
     7
  0
POLYLINE
  5
4C6
100
AcDbEntity
  8
0
  6
CONTINUOUS
 62
     7
100
AcDb2dPolyline
 66
     1
 10
0.0
 20
0.0
 30
0.0
  0
VERTEX
  5
4C7
100
AcDbEntity
  8
0
  6
CONTINUOUS
 62
     7
100
AcDbVertex
100
AcDb2dVertex
 10
9.848092
 20
4.726364
 30
0.0
  0
VERTEX
  5
4C8
100
AcDbEntity
  8
0
  6
CONTINUOUS
 62
     7
100
AcDbVertex
100
AcDb2dVertex
 10
9.22639
 20
5.275171
 30
0.0
  0
SEQEND
  5
4C9
100
AcDbEntity
  8
0
  6
CONTINUOUS
 62
     7
  0
POLYLINE
  5
4CA
100
AcDbEntity
  8
0
  6
CONTINUOUS
 62
     7
100
AcDb2dPolyline
 66
     1
 10
0.0
 20
0.0
 30
0.0
  0
VERTEX
  5
4CB
100
AcDbEntity
  8
0
  6
CONTINUOUS
 62
     7
100
AcDbVertex
100
AcDb2dVertex
 10
9.903493
 20
4.758928
 30
0.0
  0
VERTEX
  5
4CC
100
AcDbEntity
  8
0
  6
CONTINUOUS
 62
     7
100
AcDbVertex
100
AcDb2dVertex
 10
9.273016
 20
5.315
 30
0.0
  0
SEQEND
  5
4CD
100
AcDbEntity
  8
0
  6
CONTINUOUS
 62
     7
  0
POLYLINE
  5
4CE
100
AcDbEntity
  8
0
  6
CONTINUOUS
 62
     7
100
AcDb2dPolyline
 66
     1
 10
0.0
 20
0.0
 30
0.0
  0
VERTEX
  5
4CF
100
AcDbEntity
  8
0
  6
CONTINUOUS
 62
     7
100
AcDbVertex
100
AcDb2dVertex
 10
9.95671
 20
4.790208
 30
0.0
  0
VERTEX
  5
4D0
100
AcDbEntity
  8
0
  6
CONTINUOUS
 62
     7
100
AcDbVertex
100
AcDb2dVertex
 10
9.353016
 20
5.32
 30
0.0
  0
SEQEND
  5
4D1
100
AcDbEntity
  8
0
  6
CONTINUOUS
 62
     7
  0
POLYLINE
  5
4D2
100
AcDbEntity
  8
0
  6
CONTINUOUS
 62
     7
100
AcDb2dPolyline
 66
     1
 10
0.0
 20
0.0
 30
0.0
  0
VERTEX
  5
4D3
100
AcDbEntity
  8
0
  6
CONTINUOUS
 62
     7
100
AcDbVertex
100
AcDb2dVertex
 10
9.760516
 20
5.04
 30
0.0
  0
VERTEX
  5
4D4
100
AcDbEntity
  8
0
  6
CONTINUOUS
 62
     7
100
AcDbVertex
100
AcDb2dVertex
 10
9.516077
 20
5.26213
 30
0.0
  0
SEQEND
  5
4D5
100
AcDbEntity
  8
0
  6
CONTINUOUS
 62
     7
  0
POLYLINE
  5
4D6
100
AcDbEntity
  8
0
  6
CONTINUOUS
 62
     7
100
AcDb2dPolyline
 66
     1
 10
0.0
 20
0.0
 30
0.0
  0
VERTEX
  5
4D7
100
AcDbEntity
  8
0
  6
CONTINUOUS
 62
     7
100
AcDbVertex
100
AcDb2dVertex
 10
10.010481
 20
4.821813
 30
0.0
  0
VERTEX
  5
4D8
100
AcDbEntity
  8
0
  6
CONTINUOUS
 62
     7
100
AcDbVertex
100
AcDb2dVertex
 10
9.823016
 20
4.98
 30
0.0
  0
SEQEND
  5
4D9
100
AcDbEntity
  8
0
  6
CONTINUOUS
 62
     7
  0
POLYLINE
  5
4DA
100
AcDbEntity
  8
0
  6
CONTINUOUS
 62
     7
100
AcDb2dPolyline
 66
     1
 10
0.0
 20
0.0
 30
0.0
  0
VERTEX
  5
4DB
100
AcDbEntity
  8
0
  6
CONTINUOUS
 62
     7
100
AcDbVertex
100
AcDb2dVertex
 10
9.760516
 20
5.12
 30
0.0
  0
VERTEX
  5
4DC
100
AcDbEntity
  8
0
  6
CONTINUOUS
 62
     7
100
AcDbVertex
100
AcDb2dVertex
 10
9.574743
 20
5.286676
 30
0.0
  0
SEQEND
  5
4DD
100
AcDbEntity
  8
0
  6
CONTINUOUS
 62
     7
  0
POLYLINE
  5
4DE
100
AcDbEntity
  8
0
  6
CONTINUOUS
 62
     7
100
AcDb2dPolyline
 66
     1
 10
0.0
 20
0.0
 30
0.0
  0
VERTEX
  5
4DF
100
AcDbEntity
  8
0
  6
CONTINUOUS
 62
     7
100
AcDbVertex
100
AcDb2dVertex
 10
10.064351
 20
4.853476
 30
0.0
  0
VERTEX
  5
4E0
100
AcDbEntity
  8
0
  6
CONTINUOUS
 62
     7
100
AcDbVertex
100
AcDb2dVertex
 10
9.923016
 20
4.98
 30
0.0
  0
SEQEND
  5
4E1
100
AcDbEntity
  8
0
  6
CONTINUOUS
 62
     7
  0
POLYLINE
  5
4E2
100
AcDbEntity
  8
0
  6
CONTINUOUS
 62
     7
100
AcDb2dPolyline
 66
     1
 10
0.0
 20
0.0
 30
0.0
  0
VERTEX
  5
4E3
100
AcDbEntity
  8
0
  6
CONTINUOUS
 62
     7
100
AcDbVertex
100
AcDb2dVertex
 10
9.760516
 20
5.21
 30
0.0
  0
VERTEX
  5
4E4
100
AcDbEntity
  8
0
  6
CONTINUOUS
 62
     7
100
AcDbVertex
100
AcDb2dVertex
 10
9.643016
 20
5.315
 30
0.0
  0
SEQEND
  5
4E5
100
AcDbEntity
  8
0
  6
CONTINUOUS
 62
     7
  0
POLYLINE
  5
4E6
100
AcDbEntity
  8
0
  6
CONTINUOUS
 62
     7
100
AcDb2dPolyline
 66
     1
 10
0.0
 20
0.0
 30
0.0
  0
VERTEX
  5
4E7
100
AcDbEntity
  8
0
  6
CONTINUOUS
 62
     7
100
AcDbVertex
100
AcDb2dVertex
 10
10.125
 20
4.889125
 30
0.0
  0
VERTEX
  5
4E8
100
AcDbEntity
  8
0
  6
CONTINUOUS
 62
     7
100
AcDbVertex
100
AcDb2dVertex
 10
10.023016
 20
4.98
 30
0.0
  0
SEQEND
  5
4E9
100
AcDbEntity
  8
0
  6
CONTINUOUS
 62
     7
  0
ENDBLK
  5
4EB
100
AcDbEntity
  8
0
100
AcDbBlockEnd
  0
BLOCK
  5
4ED
100
AcDbEntity
  8
0
100
AcDbBlockBegin
  2
SHEET_298
 70
    66
 10
9.444742
 20
3.632354
 30
0.0
  3
SHEET_298
  1

  0
POLYLINE
  5
4EE
100
AcDbEntity
  8
0
  6
CONTINUOUS
 62
     7
100
AcDb2dPolyline
 66
     1
 10
0.0
 20
0.0
 30
0.0
  0
VERTEX
  5
4EF
100
AcDbEntity
  8
0
  6
CONTINUOUS
 62
     7
100
AcDbVertex
100
AcDb2dVertex
 10
9.375
 20
4.024707
 30
0.0
  0
VERTEX
  5
4F0
100
AcDbEntity
  8
0
  6
CONTINUOUS
 62
     7
100
AcDbVertex
100
AcDb2dVertex
 10
9.096424
 20
3.782084
 30
0.0
  0
SEQEND
  5
4F1
100
AcDbEntity
  8
0
  6
CONTINUOUS
 62
     7
  0
POLYLINE
  5
4F2
100
AcDbEntity
  8
0
  6
CONTINUOUS
 62
     7
100
AcDb2dPolyline
 66
     1
 10
0.0
 20
0.0
 30
0.0
  0
VERTEX
  5
4F3
100
AcDbEntity
  8
0
  6
CONTINUOUS
 62
     7
100
AcDbVertex
100
AcDb2dVertex
 10
9.445
 20
4.024707
 30
0.0
  0
VERTEX
  5
4F4
100
AcDbEntity
  8
0
  6
CONTINUOUS
 62
     7
100
AcDbVertex
100
AcDb2dVertex
 10
8.943544
 20
3.584263
 30
0.0
  0
SEQEND
  5
4F5
100
AcDbEntity
  8
0
  6
CONTINUOUS
 62
     7
  0
POLYLINE
  5
4F6
100
AcDbEntity
  8
0
  6
CONTINUOUS
 62
     7
100
AcDb2dPolyline
 66
     1
 10
0.0
 20
0.0
 30
0.0
  0
VERTEX
  5
4F7
100
AcDbEntity
  8
0
  6
CONTINUOUS
 62
     7
100
AcDbVertex
100
AcDb2dVertex
 10
9.515
 20
4.024707
 30
0.0
  0
VERTEX
  5
4F8
100
AcDbEntity
  8
0
  6
CONTINUOUS
 62
     7
100
AcDbVertex
100
AcDb2dVertex
 10
8.790388
 20
3.386087
 30
0.0
  0
SEQEND
  5
4F9
100
AcDbEntity
  8
0
  6
CONTINUOUS
 62
     7
  0
POLYLINE
  5
4FA
100
AcDbEntity
  8
0
  6
CONTINUOUS
 62
     7
100
AcDb2dPolyline
 66
     1
 10
0.0
 20
0.0
 30
0.0
  0
VERTEX
  5
4FB
100
AcDbEntity
  8
0
  6
CONTINUOUS
 62
     7
100
AcDbVertex
100
AcDb2dVertex
 10
9.565409
 20
4.000956
 30
0.0
  0
VERTEX
  5
4FC
100
AcDbEntity
  8
0
  6
CONTINUOUS
 62
     7
100
AcDbVertex
100
AcDb2dVertex
 10
8.7625
 20
3.3
 30
0.0
  0
SEQEND
  5
4FD
100
AcDbEntity
  8
0
  6
CONTINUOUS
 62
     7
  0
POLYLINE
  5
4FE
100
AcDbEntity
  8
0
  6
CONTINUOUS
 62
     7
100
AcDb2dPolyline
 66
     1
 10
0.0
 20
0.0
 30
0.0
  0
VERTEX
  5
4FF
100
AcDbEntity
  8
0
  6
CONTINUOUS
 62
     7
100
AcDbVertex
100
AcDb2dVertex
 10
9.609336
 20
3.975137
 30
0.0
  0
VERTEX
  5
500
100
AcDbEntity
  8
0
  6
CONTINUOUS
 62
     7
100
AcDbVertex
100
AcDb2dVertex
 10
8.815
 20
3.28
 30
0.0
  0
SEQEND
  5
501
100
AcDbEntity
  8
0
  6
CONTINUOUS
 62
     7
  0
POLYLINE
  5
502
100
AcDbEntity
  8
0
  6
CONTINUOUS
 62
     7
100
AcDb2dPolyline
 66
     1
 10
0.0
 20
0.0
 30
0.0
  0
VERTEX
  5
503
100
AcDbEntity
  8
0
  6
CONTINUOUS
 62
     7
100
AcDbVertex
100
AcDb2dVertex
 10
9.657419
 20
3.946875
 30
0.0
  0
VERTEX
  5
504
100
AcDbEntity
  8
0
  6
CONTINUOUS
 62
     7
100
AcDbVertex
100
AcDb2dVertex
 10
8.895
 20
3.28
 30
0.0
  0
SEQEND
  5
505
100
AcDbEntity
  8
0
  6
CONTINUOUS
 62
     7
  0
POLYLINE
  5
506
100
AcDbEntity
  8
0
  6
CONTINUOUS
 62
     7
100
AcDb2dPolyline
 66
     1
 10
0.0
 20
0.0
 30
0.0
  0
VERTEX
  5
507
100
AcDbEntity
  8
0
  6
CONTINUOUS
 62
     7
100
AcDbVertex
100
AcDb2dVertex
 10
9.703969
 20
3.919513
 30
0.0
  0
VERTEX
  5
508
100
AcDbEntity
  8
0
  6
CONTINUOUS
 62
     7
100
AcDbVertex
100
AcDb2dVertex
 10
8.975
 20
3.28
 30
0.0
  0
SEQEND
  5
509
100
AcDbEntity
  8
0
  6
CONTINUOUS
 62
     7
  0
POLYLINE
  5
50A
100
AcDbEntity
  8
0
  6
CONTINUOUS
 62
     7
100
AcDb2dPolyline
 66
     1
 10
0.0
 20
0.0
 30
0.0
  0
VERTEX
  5
50B
100
AcDbEntity
  8
0
  6
CONTINUOUS
 62
     7
100
AcDbVertex
100
AcDb2dVertex
 10
9.752818
 20
3.890801
 30
0.0
  0
VERTEX
  5
50C
100
AcDbEntity
  8
0
  6
CONTINUOUS
 62
     7
100
AcDbVertex
100
AcDb2dVertex
 10
9.02
 20
3.245
 30
0.0
  0
SEQEND
  5
50D
100
AcDbEntity
  8
0
  6
CONTINUOUS
 62
     7
  0
POLYLINE
  5
50E
100
AcDbEntity
  8
0
  6
CONTINUOUS
 62
     7
100
AcDb2dPolyline
 66
     1
 10
0.0
 20
0.0
 30
0.0
  0
VERTEX
  5
50F
100
AcDbEntity
  8
0
  6
CONTINUOUS
 62
     7
100
AcDbVertex
100
AcDb2dVertex
 10
9.803638
 20
3.86093
 30
0.0
  0
VERTEX
  5
510
100
AcDbEntity
  8
0
  6
CONTINUOUS
 62
     7
100
AcDbVertex
100
AcDb2dVertex
 10
9.147961
 20
3.2844
 30
0.0
  0
SEQEND
  5
511
100
AcDbEntity
  8
0
  6
CONTINUOUS
 62
     7
  0
POLYLINE
  5
512
100
AcDbEntity
  8
0
  6
CONTINUOUS
 62
     7
100
AcDb2dPolyline
 66
     1
 10
0.0
 20
0.0
 30
0.0
  0
VERTEX
  5
513
100
AcDbEntity
  8
0
  6
CONTINUOUS
 62
     7
100
AcDbVertex
100
AcDb2dVertex
 10
9.850076
 20
3.833636
 30
0.0
  0
VERTEX
  5
514
100
AcDbEntity
  8
0
  6
CONTINUOUS
 62
     7
100
AcDbVertex
100
AcDb2dVertex
 10
9.228374
 20
3.284829
 30
0.0
  0
SEQEND
  5
515
100
AcDbEntity
  8
0
  6
CONTINUOUS
 62
     7
  0
POLYLINE
  5
516
100
AcDbEntity
  8
0
  6
CONTINUOUS
 62
     7
100
AcDb2dPolyline
 66
     1
 10
0.0
 20
0.0
 30
0.0
  0
VERTEX
  5
517
100
AcDbEntity
  8
0
  6
CONTINUOUS
 62
     7
100
AcDbVertex
100
AcDb2dVertex
 10
9.905477
 20
3.801072
 30
0.0
  0
VERTEX
  5
518
100
AcDbEntity
  8
0
  6
CONTINUOUS
 62
     7
100
AcDbVertex
100
AcDb2dVertex
 10
9.275
 20
3.245
 30
0.0
  0
SEQEND
  5
519
100
AcDbEntity
  8
0
  6
CONTINUOUS
 62
     7
  0
POLYLINE
  5
51A
100
AcDbEntity
  8
0
  6
CONTINUOUS
 62
     7
100
AcDb2dPolyline
 66
     1
 10
0.0
 20
0.0
 30
0.0
  0
VERTEX
  5
51B
100
AcDbEntity
  8
0
  6
CONTINUOUS
 62
     7
100
AcDbVertex
100
AcDb2dVertex
 10
9.958694
 20
3.769792
 30
0.0
  0
VERTEX
  5
51C
100
AcDbEntity
  8
0
  6
CONTINUOUS
 62
     7
100
AcDbVertex
100
AcDb2dVertex
 10
9.355
 20
3.24
 30
0.0
  0
SEQEND
  5
51D
100
AcDbEntity
  8
0
  6
CONTINUOUS
 62
     7
  0
POLYLINE
  5
51E
100
AcDbEntity
  8
0
  6
CONTINUOUS
 62
     7
100
AcDb2dPolyline
 66
     1
 10
0.0
 20
0.0
 30
0.0
  0
VERTEX
  5
51F
100
AcDbEntity
  8
0
  6
CONTINUOUS
 62
     7
100
AcDbVertex
100
AcDb2dVertex
 10
9.7625
 20
3.52
 30
0.0
  0
VERTEX
  5
520
100
AcDbEntity
  8
0
  6
CONTINUOUS
 62
     7
100
AcDbVertex
100
AcDb2dVertex
 10
9.518061
 20
3.29787
 30
0.0
  0
SEQEND
  5
521
100
AcDbEntity
  8
0
  6
CONTINUOUS
 62
     7
  0
POLYLINE
  5
522
100
AcDbEntity
  8
0
  6
CONTINUOUS
 62
     7
100
AcDb2dPolyline
 66
     1
 10
0.0
 20
0.0
 30
0.0
  0
VERTEX
  5
523
100
AcDbEntity
  8
0
  6
CONTINUOUS
 62
     7
100
AcDbVertex
100
AcDb2dVertex
 10
10.012465
 20
3.738187
 30
0.0
  0
VERTEX
  5
524
100
AcDbEntity
  8
0
  6
CONTINUOUS
 62
     7
100
AcDbVertex
100
AcDb2dVertex
 10
9.825
 20
3.58
 30
0.0
  0
SEQEND
  5
525
100
AcDbEntity
  8
0
  6
CONTINUOUS
 62
     7
  0
POLYLINE
  5
526
100
AcDbEntity
  8
0
  6
CONTINUOUS
 62
     7
100
AcDb2dPolyline
 66
     1
 10
0.0
 20
0.0
 30
0.0
  0
VERTEX
  5
527
100
AcDbEntity
  8
0
  6
CONTINUOUS
 62
     7
100
AcDbVertex
100
AcDb2dVertex
 10
9.7625
 20
3.44
 30
0.0
  0
VERTEX
  5
528
100
AcDbEntity
  8
0
  6
CONTINUOUS
 62
     7
100
AcDbVertex
100
AcDb2dVertex
 10
9.576727
 20
3.273324
 30
0.0
  0
SEQEND
  5
529
100
AcDbEntity
  8
0
  6
CONTINUOUS
 62
     7
  0
POLYLINE
  5
52A
100
AcDbEntity
  8
0
  6
CONTINUOUS
 62
     7
100
AcDb2dPolyline
 66
     1
 10
0.0
 20
0.0
 30
0.0
  0
VERTEX
  5
52B
100
AcDbEntity
  8
0
  6
CONTINUOUS
 62
     7
100
AcDbVertex
100
AcDb2dVertex
 10
10.066335
 20
3.706524
 30
0.0
  0
VERTEX
  5
52C
100
AcDbEntity
  8
0
  6
CONTINUOUS
 62
     7
100
AcDbVertex
100
AcDb2dVertex
 10
9.925
 20
3.58
 30
0.0
  0
SEQEND
  5
52D
100
AcDbEntity
  8
0
  6
CONTINUOUS
 62
     7
  0
POLYLINE
  5
52E
100
AcDbEntity
  8
0
  6
CONTINUOUS
 62
     7
100
AcDb2dPolyline
 66
     1
 10
0.0
 20
0.0
 30
0.0
  0
VERTEX
  5
52F
100
AcDbEntity
  8
0
  6
CONTINUOUS
 62
     7
100
AcDbVertex
100
AcDb2dVertex
 10
9.7625
 20
3.35
 30
0.0
  0
VERTEX
  5
530
100
AcDbEntity
  8
0
  6
CONTINUOUS
 62
     7
100
AcDbVertex
100
AcDb2dVertex
 10
9.645
 20
3.245
 30
0.0
  0
SEQEND
  5
531
100
AcDbEntity
  8
0
  6
CONTINUOUS
 62
     7
  0
POLYLINE
  5
532
100
AcDbEntity
  8
0
  6
CONTINUOUS
 62
     7
100
AcDb2dPolyline
 66
     1
 10
0.0
 20
0.0
 30
0.0
  0
VERTEX
  5
533
100
AcDbEntity
  8
0
  6
CONTINUOUS
 62
     7
100
AcDbVertex
100
AcDb2dVertex
 10
10.126984
 20
3.670875
 30
0.0
  0
VERTEX
  5
534
100
AcDbEntity
  8
0
  6
CONTINUOUS
 62
     7
100
AcDbVertex
100
AcDb2dVertex
 10
10.025
 20
3.58
 30
0.0
  0
SEQEND
  5
535
100
AcDbEntity
  8
0
  6
CONTINUOUS
 62
     7
  0
ENDBLK
  5
537
100
AcDbEntity
  8
0
100
AcDbBlockEnd
  0
BLOCK
  5
539
100
AcDbEntity
  8
0
100
AcDbBlockBegin
  2
HORIZONTAL_73
 70
    66
 10
1.775
 20
1.788889
 30
0.0
  3
HORIZONTAL_73
  1

  0
ATTDEF
  5
53A
100
AcDbEntity
  8
DIMENSIONS
100
AcDbText
 10
1.775
 20
2.538889
 30
0.0
 40
0.25
  1
0.00
100
AcDbAttributeDefinition
  3
Choose the displayed precision for the dimension.
  2
PRECISION
 70
     1
  0
ATTDEF
  5
53B
100
AcDbEntity
  8
DIMENSIONS
100
AcDbText
 10
1.775
 20
2.163889
 30
0.0
 40
0.25
  1
User.LUnitsVal
100
AcDbAttributeDefinition
  3
Choose the units for the dimension.
  2
UNITS
 70
     1
  0
ATTDEF
  5
53C
100
AcDbEntity
  8
DIMENSIONS
100
AcDbText
 10
1.775
 20
1.788889
 30
0.0
 40
0.25
  1
User.ShowUnitsVal
100
AcDbAttributeDefinition
  3
Choose whether or not to display unit abbreviations.
  2
UNITSDISPLAY
 70
     1
  0
ATTDEF
  5
53D
100
AcDbEntity
  8
DIMENSIONS
100
AcDbText
 10
1.775
 20
1.413889
 30
0.0
 40
0.25
  1
Both
100
AcDbAttributeDefinition
  3
Choose which extension lines are visible.
  2
EXTENSIONLINES
 70
     1
  0
ATTDEF
  5
53E
100
AcDbEntity
  8
DIMENSIONS
100
AcDbText
 10
1.775
 20
1.038889
 30
0.0
 40
0.25
  1
0 deg.
100
AcDbAttributeDefinition
  3
Choose the angle at which the dimension line is rotated.
  2
ANGLE
 70
     1
  0
POLYLINE
  5
53F
100
AcDbEntity
  8
DIMENSIONS
  6
CONTINUOUS
 62
     7
100
AcDb2dPolyline
 66
     1
 10
0.0
 20
0.0
 30
0.0
 70
     1
  0
VERTEX
  5
540
100
AcDbEntity
  8
DIMENSIONS
  6
CONTINUOUS
 62
     7
100
AcDbVertex
100
AcDb2dVertex
 10
1.775
 20
1.477778
 30
0.0
  0
VERTEX
  5
541
100
AcDbEntity
  8
DIMENSIONS
  6
CONTINUOUS
 62
     7
100
AcDbVertex
100
AcDb2dVertex
 10
1.775
 20
1.733333
 30
0.0
  0
SEQEND
  5
542
100
AcDbEntity
  8
DIMENSIONS
  6
CONTINUOUS
 62
     7
  0
POLYLINE
  5
543
100
AcDbEntity
  8
DIMENSIONS
  6
CONTINUOUS
 62
     7
100
AcDb2dPolyline
 66
     1
 10
0.0
 20
0.0
 30
0.0
 70
     1
  0
VERTEX
  5
544
100
AcDbEntity
  8
DIMENSIONS
  6
CONTINUOUS
 62
     7
100
AcDbVertex
100
AcDb2dVertex
 10
1.8475
 20
1.477778
 30
0.0
  0
VERTEX
  5
545
100
AcDbEntity
  8
DIMENSIONS
  6
CONTINUOUS
 62
     7
100
AcDbVertex
100
AcDb2dVertex
 10
1.8475
 20
1.733333
 30
0.0
  0
SEQEND
  5
546
100
AcDbEntity
  8
DIMENSIONS
  6
CONTINUOUS
 62
     7
  0
SOLID
  5
547
100
AcDbEntity
  8
DIMENSIONS
100
AcDbTrace
 10
1.775
 20
1.588889
 30
0.0
 11
1.69
 21
1.560556
 31
0.0
 12
1.69
 22
1.617222
 32
0.0
 13
1.69
 23
1.617222
 33
0.0
  0
POLYLINE
  5
548
100
AcDbEntity
  8
DIMENSIONS
  6
CONTINUOUS
 62
     7
100
AcDb2dPolyline
 66
     1
 10
0.0
 20
0.0
 30
0.0
  0
VERTEX
  5
549
100
AcDbEntity
  8
DIMENSIONS
  6
CONTINUOUS
 62
     7
100
AcDbVertex
100
AcDb2dVertex
 10
1.6084
 20
1.588889
 30
0.0
  0
VERTEX
  5
54A
100
AcDbEntity
  8
DIMENSIONS
  6
CONTINUOUS
 62
     7
100
AcDbVertex
100
AcDb2dVertex
 10
1.775
 20
1.588889
 30
0.0
  0
SEQEND
  5
54B
100
AcDbEntity
  8
DIMENSIONS
  6
CONTINUOUS
 62
     7
  0
SOLID
  5
54C
100
AcDbEntity
  8
DIMENSIONS
100
AcDbTrace
 10
1.8475
 20
1.588889
 30
0.0
 11
1.9325
 21
1.617222
 31
0.0
 12
1.9325
 22
1.560556
 32
0.0
 13
1.9325
 23
1.560556
 33
0.0
  0
POLYLINE
  5
54D
100
AcDbEntity
  8
DIMENSIONS
  6
CONTINUOUS
 62
     7
100
AcDb2dPolyline
 66
     1
 10
0.0
 20
0.0
 30
0.0
  0
VERTEX
  5
54E
100
AcDbEntity
  8
DIMENSIONS
  6
CONTINUOUS
 62
     7
100
AcDbVertex
100
AcDb2dVertex
 10
2.0141
 20
1.588889
 30
0.0
  0
VERTEX
  5
54F
100
AcDbEntity
  8
DIMENSIONS
  6
CONTINUOUS
 62
     7
100
AcDbVertex
100
AcDb2dVertex
 10
1.8475
 20
1.588889
 30
0.0
  0
SEQEND
  5
550
100
AcDbEntity
  8
DIMENSIONS
  6
CONTINUOUS
 62
     7
  0
POLYLINE
  5
551
100
AcDbEntity
  8
DIMENSIONS
  6
CONTINUOUS
 62
     7
100
AcDb2dPolyline
 66
     1
 10
0.0
 20
0.0
 30
0.0
 70
     1
  0
VERTEX
  5
552
100
AcDbEntity
  8
DIMENSIONS
  6
CONTINUOUS
 62
     7
100
AcDbVertex
100
AcDb2dVertex
 10
1.469375
 20
1.588889
 30
0.0
  0
VERTEX
  5
553
100
AcDbEntity
  8
DIMENSIONS
  6
CONTINUOUS
 62
     7
100
AcDbVertex
100
AcDb2dVertex
 10
1.775
 20
1.588889
 30
0.0
  0
SEQEND
  5
554
100
AcDbEntity
  8
DIMENSIONS
  6
CONTINUOUS
 62
     7
  0
TEXT
  5
555
100
AcDbEntity
  8
DIMENSIONS
 62
     7
100
AcDbText
 10
1.247732
 20
1.547222
 30
0.0
 40
0.111111
  1
.0725
  7
_DIMENSION
 72
     1
 11
1.469375
 21
1.588889
 31
0.0
100
AcDbText
 73
     2
  0
ENDBLK
  5
557
100
AcDbEntity
  8
0
100
AcDbBlockEnd
  0
BLOCK
  5
55F
100
AcDbEntity
  8
0
100
AcDbBlockBegin
  2
BOX_CALLOUT_299
 70
    66
 10
3.425
 20
1.6
 30
0.0
  3
BOX_CALLOUT_299
  1

  0
POLYLINE
  5
560
100
AcDbEntity
  8
DIMENSIONS
  6
CONTINUOUS
 62
     7
100
AcDb2dPolyline
 66
     1
 10
0.0
 20
0.0
 30
0.0
  0
VERTEX
  5
561
100
AcDbEntity
  8
DIMENSIONS
  6
CONTINUOUS
 62
     7
100
AcDbVertex
100
AcDb2dVertex
 10
2.225
 20
1.6
 30
0.0
  0
VERTEX
  5
562
100
AcDbEntity
  8
DIMENSIONS
  6
CONTINUOUS
 62
     7
100
AcDbVertex
100
AcDb2dVertex
 10
2.301667
 20
1.638333
 30
0.0
  0
SEQEND
  5
563
100
AcDbEntity
  8
DIMENSIONS
  6
CONTINUOUS
 62
     7
  0
POLYLINE
  5
564
100
AcDbEntity
  8
DIMENSIONS
  6
CONTINUOUS
 62
     7
100
AcDb2dPolyline
 66
     1
 10
0.0
 20
0.0
 30
0.0
  0
VERTEX
  5
565
100
AcDbEntity
  8
DIMENSIONS
  6
CONTINUOUS
 62
     7
100
AcDbVertex
100
AcDb2dVertex
 10
4.625
 20
1.6
 30
0.0
  0
VERTEX
  5
566
100
AcDbEntity
  8
DIMENSIONS
  6
CONTINUOUS
 62
     7
100
AcDbVertex
100
AcDb2dVertex
 10
2.225
 20
1.6
 30
0.0
  0
SEQEND
  5
567
100
AcDbEntity
  8
DIMENSIONS
  6
CONTINUOUS
 62
     7
  0
POLYLINE
  5
568
100
AcDbEntity
  8
DIMENSIONS
  6
CONTINUOUS
 62
     7
100
AcDb2dPolyline
 66
     1
 10
0.0
 20
0.0
 30
0.0
 70
     1
  0
VERTEX
  5
569
100
AcDbEntity
  8
DIMENSIONS
  6
CONTINUOUS
 62
     7
100
AcDbVertex
100
AcDb2dVertex
 10
4.625
 20
1.388889
 30
0.0
  0
VERTEX
  5
56A
100
AcDbEntity
  8
DIMENSIONS
  6
CONTINUOUS
 62
     7
100
AcDbVertex
100
AcDb2dVertex
 10
4.625
 20
1.811111
 30
0.0
  0
VERTEX
  5
56B
100
AcDbEntity
  8
DIMENSIONS
  6
CONTINUOUS
 62
     7
100
AcDbVertex
100
AcDb2dVertex
 10
6.125868
 20
1.811111
 30
0.0
  0
VERTEX
  5
56C
100
AcDbEntity
  8
DIMENSIONS
  6
CONTINUOUS
 62
     7
100
AcDbVertex
100
AcDb2dVertex
 10
6.125868
 20
1.388889
 30
0.0
  0
SEQEND
  5
56D
100
AcDbEntity
  8
DIMENSIONS
  6
CONTINUOUS
 62
     7
  0
TEXT
  5
56E
100
AcDbEntity
  8
DIMENSIONS
 62
     7
100
AcDbText
 10
4.777054
 20
1.836111
 30
0.0
 40
0.111111
  1
Stainless steel
  7
_GDT_CALLOUT
 72
     1
 11
5.375434
 21
1.877778
 31
0.0
100
AcDbText
 73
     2
  0
TEXT
  5
56F
100
AcDbEntity
  8
DIMENSIONS
 62
     7
100
AcDbText
 10
4.8193
 20
1.650926
 30
0.0
 40
0.111111
  1
injector plate
  7
_GDT_CALLOUT
 72
     1
 11
5.375434
 21
1.692593
 31
0.0
100
AcDbText
 73
     2
  0
TEXT
  5
570
100
AcDbEntity
  8
DIMENSIONS
 62
     7
100
AcDbText
 10
4.848814
 20
1.465741
 30
0.0
 40
0.111111
  1
inserted into
  7
_GDT_CALLOUT
 72
     1
 11
5.375434
 21
1.507407
 31
0.0
100
AcDbText
 73
     2
  0
TEXT
  5
571
100
AcDbEntity
  8
DIMENSIONS
 62
     7
100
AcDbText
 10
4.748119
 20
1.280556
 30
0.0
 40
0.111111
  1
graphite sleeve
  7
_GDT_CALLOUT
 72
     1
 11
5.375434
 21
1.322222
 31
0.0
100
AcDbText
 73
     2
  0
ENDBLK
  5
573
100
AcDbEntity
  8
0
100
AcDbBlockEnd
  0
BLOCK
  5
575
100
AcDbEntity
  8
0
100
AcDbBlockBegin
  2
BOX_CALLOUT_300
 70
    66
 10
8.688553
 20
5.073837
 30
0.0
  3
BOX_CALLOUT_300
  1

  0
POLYLINE
  5
576
100
AcDbEntity
  8
DIMENSIONS
  6
CONTINUOUS
 62
     7
100
AcDb2dPolyline
 66
     1
 10
0.0
 20
0.0
 30
0.0
  0
VERTEX
  5
577
100
AcDbEntity
  8
DIMENSIONS
  6
CONTINUOUS
 62
     7
100
AcDbVertex
100
AcDb2dVertex
 10
9.097073
 20
5.245331
 30
0.0
  0
VERTEX
  5
578
100
AcDbEntity
  8
DIMENSIONS
  6
CONTINUOUS
 62
     7
100
AcDbVertex
100
AcDb2dVertex
 10
9.011438
 20
5.241588
 30
0.0
  0
SEQEND
  5
579
100
AcDbEntity
  8
DIMENSIONS
  6
CONTINUOUS
 62
     7
  0
POLYLINE
  5
57A
100
AcDbEntity
  8
DIMENSIONS
  6
CONTINUOUS
 62
     7
100
AcDb2dPolyline
 66
     1
 10
0.0
 20
0.0
 30
0.0
  0
VERTEX
  5
57B
100
AcDbEntity
  8
DIMENSIONS
  6
CONTINUOUS
 62
     7
100
AcDbVertex
100
AcDb2dVertex
 10
8.280034
 20
4.902344
 30
0.0
  0
VERTEX
  5
57C
100
AcDbEntity
  8
DIMENSIONS
  6
CONTINUOUS
 62
     7
100
AcDbVertex
100
AcDb2dVertex
 10
8.480034
 20
4.902344
 30
0.0
  0
VERTEX
  5
57D
100
AcDbEntity
  8
DIMENSIONS
  6
CONTINUOUS
 62
     7
100
AcDbVertex
100
AcDb2dVertex
 10
9.097073
 20
5.245331
 30
0.0
  0
SEQEND
  5
57E
100
AcDbEntity
  8
DIMENSIONS
  6
CONTINUOUS
 62
     7
  0
POLYLINE
  5
57F
100
AcDbEntity
  8
DIMENSIONS
  6
CONTINUOUS
 62
     7
100
AcDb2dPolyline
 66
     1
 10
0.0
 20
0.0
 30
0.0
 70
     1
  0
VERTEX
  5
580
100
AcDbEntity
  8
DIMENSIONS
  6
CONTINUOUS
 62
     7
100
AcDbVertex
100
AcDb2dVertex
 10
8.280034
 20
4.76901
 30
0.0
  0
VERTEX
  5
581
100
AcDbEntity
  8
DIMENSIONS
  6
CONTINUOUS
 62
     7
100
AcDbVertex
100
AcDb2dVertex
 10
8.280034
 20
5.035677
 30
0.0
  0
VERTEX
  5
582
100
AcDbEntity
  8
DIMENSIONS
  6
CONTINUOUS
 62
     7
100
AcDbVertex
100
AcDb2dVertex
 10
7.804665
 20
5.035677
 30
0.0
  0
VERTEX
  5
583
100
AcDbEntity
  8
DIMENSIONS
  6
CONTINUOUS
 62
     7
100
AcDbVertex
100
AcDb2dVertex
 10
7.804665
 20
4.76901
 30
0.0
  0
SEQEND
  5
584
100
AcDbEntity
  8
DIMENSIONS
  6
CONTINUOUS
 62
     7
  0
TEXT
  5
585
100
AcDbEntity
  8
DIMENSIONS
 62
     7
100
AcDbText
 10
7.751261
 20
4.860677
 30
0.0
 40
0.111111
  1
O-rings
  7
_GDT_CALLOUT
 72
     1
 11
8.042349
 21
4.902344
 31
0.0
100
AcDbText
 73
     2
  0
ENDBLK
  5
587
100
AcDbEntity
  8
0
100
AcDbBlockEnd
  0
BLOCK
  5
591
100
AcDbEntity
  8
0
100
AcDbBlockBegin
  2
SHEET_311
 70
    66
 10
1.595
 20
4.25
 30
0.0
  3
SHEET_311
  1

  0
POLYLINE
  5
593
100
AcDbEntity
  8
0
  6
DASHED2
 62
     7
100
AcDb2dPolyline
 66
     1
 10
0.0
 20
0.0
 30
0.0
  0
VERTEX
  5
594
100
AcDbEntity
  8
0
  6
DASHED2
 62
     7
100
AcDbVertex
100
AcDb2dVertex
 10
1.4393
 20
4.38
 30
0.0
  0
VERTEX
  5
595
100
AcDbEntity
  8
0
  6
DASHED2
 62
     7
100
AcDbVertex
100
AcDb2dVertex
 10
1.825
 20
4.38
 30
0.0
  0
SEQEND
  5
596
100
AcDbEntity
  8
0
  6
DASHED2
 62
     7
  0
POLYLINE
  5
597
100
AcDbEntity
  8
0
  6
DASHED2
 62
     7
100
AcDb2dPolyline
 66
     1
 10
0.0
 20
0.0
 30
0.0
  0
VERTEX
  5
598
100
AcDbEntity
  8
0
  6
DASHED2
 62
     7
100
AcDbVertex
100
AcDb2dVertex
 10
1.4393
 20
4.13
 30
0.0
  0
VERTEX
  5
599
100
AcDbEntity
  8
0
  6
DASHED2
 62
     7
100
AcDbVertex
100
AcDb2dVertex
 10
1.825
 20
4.13
 30
0.0
  0
SEQEND
  5
59A
100
AcDbEntity
  8
0
  6
DASHED2
 62
     7
  0
POLYLINE
  5
59B
100
AcDbEntity
  8
0
  6
CONTINUOUS
 62
     7
100
AcDb2dPolyline
 66
     1
 10
0.0
 20
0.0
 30
0.0
  0
VERTEX
  5
59C
100
AcDbEntity
  8
0
  6
CONTINUOUS
 62
     7
100
AcDbVertex
100
AcDb2dVertex
 10
1.825
 20
4.45
 30
0.0
  0
VERTEX
  5
59D
100
AcDbEntity
  8
0
  6
CONTINUOUS
 62
     7
100
AcDbVertex
100
AcDb2dVertex
 10
1.825
 20
4.05
 30
0.0
  0
SEQEND
  5
59E
100
AcDbEntity
  8
0
  6
CONTINUOUS
 62
     7
  0
POLYLINE
  5
59F
100
AcDbEntity
  8
0
  6
CONTINUOUS
 62
     7
100
AcDb2dPolyline
 66
     1
 10
0.0
 20
0.0
 30
0.0
  0
VERTEX
  5
5A0
100
AcDbEntity
  8
0
  6
CONTINUOUS
 62
     7
100
AcDbVertex
100
AcDb2dVertex
 10
1.945
 20
4.38
 30
0.0
  0
VERTEX
  5
5A1
100
AcDbEntity
  8
0
  6
CONTINUOUS
 62
     7
100
AcDbVertex
100
AcDb2dVertex
 10
1.945
 20
4.13
 30
0.0
  0
SEQEND
  5
5A2
100
AcDbEntity
  8
0
  6
CONTINUOUS
 62
     7
  0
POLYLINE
  5
5A3
100
AcDbEntity
  8
0
  6
CONTINUOUS
 62
     7
100
AcDb2dPolyline
 66
     1
 10
0.0
 20
0.0
 30
0.0
  0
VERTEX
  5
5A4
100
AcDbEntity
  8
0
  6
CONTINUOUS
 62
     7
100
AcDbVertex
100
AcDb2dVertex
 10
1.825
 20
4.05
 30
0.0
  0
VERTEX
  5
5A5
100
AcDbEntity
  8
0
  6
CONTINUOUS
 62
     7
100
AcDbVertex
100
AcDb2dVertex
 10
1.945
 20
4.13
 30
0.0
  0
SEQEND
  5
5A6
100
AcDbEntity
  8
0
  6
CONTINUOUS
 62
     7
  0
POLYLINE
  5
5A7
100
AcDbEntity
  8
0
  6
CONTINUOUS
 62
     7
100
AcDb2dPolyline
 66
     1
 10
0.0
 20
0.0
 30
0.0
  0
VERTEX
  5
5A8
100
AcDbEntity
  8
0
  6
CONTINUOUS
 62
     7
100
AcDbVertex
100
AcDb2dVertex
 10
1.825
 20
4.45
 30
0.0
  0
VERTEX
  5
5A9
100
AcDbEntity
  8
0
  6
CONTINUOUS
 62
     7
100
AcDbVertex
100
AcDb2dVertex
 10
1.945
 20
4.38
 30
0.0
  0
SEQEND
  5
5AA
100
AcDbEntity
  8
0
  6
CONTINUOUS
 62
     7
  0
POLYLINE
  5
5AB
100
AcDbEntity
  8
0
  6
CONTINUOUS
 62
     7
100
AcDb2dPolyline
 66
     1
 10
0.0
 20
0.0
 30
0.0
  0
VERTEX
  5
5AC
100
AcDbEntity
  8
0
  6
CONTINUOUS
 62
     7
100
AcDbVertex
100
AcDb2dVertex
 10
1.885577
 20
4.090385
 30
0.0
  0
VERTEX
  5
5AD
100
AcDbEntity
  8
0
  6
CONTINUOUS
 62
     7
100
AcDbVertex
100
AcDb2dVertex
 10
1.884534
 20
4.415272
 30
0.0
  0
SEQEND
  5
5AE
100
AcDbEntity
  8
0
  6
CONTINUOUS
 62
     7
  0
POLYLINE
  5
5AF
100
AcDbEntity
  8
0
  6
CONTINUOUS
 62
     7
100
AcDb2dPolyline
 66
     1
 10
0.0
 20
0.0
 30
0.0
  0
VERTEX
  5
5B0
100
AcDbEntity
  8
0
  6
CONTINUOUS
 62
     7
100
AcDbVertex
100
AcDb2dVertex
 10
1.425
 20
4.0
 30
0.0
  0
VERTEX
  5
5B1
100
AcDbEntity
  8
0
  6
CONTINUOUS
 62
     7
100
AcDbVertex
100
AcDb2dVertex
 10
1.425
 20
4.5
 30
0.0
  0
SEQEND
  5
5B2
100
AcDbEntity
  8
0
  6
CONTINUOUS
 62
     7
  0
POLYLINE
  5
5B3
100
AcDbEntity
  8
0
  6
CONTINUOUS
 62
     7
100
AcDb2dPolyline
 66
     1
 10
0.0
 20
0.0
 30
0.0
  0
VERTEX
  5
5B4
100
AcDbEntity
  8
0
  6
CONTINUOUS
 62
     7
100
AcDbVertex
100
AcDb2dVertex
 10
1.415
 20
4.5
 30
0.0
  0
VERTEX
  5
5B5
100
AcDbEntity
  8
0
  6
CONTINUOUS
 62
     7
100
AcDbVertex
100
AcDb2dVertex
 10
1.33
 20
4.5
 30
0.0
 42
0.414214
  0
VERTEX
  5
5B6
100
AcDbEntity
  8
0
  6
CONTINUOUS
 62
     7
100
AcDbVertex
100
AcDb2dVertex
 10
1.245
 20
4.415
 30
0.0
  0
VERTEX
  5
5B7
100
AcDbEntity
  8
0
  6
CONTINUOUS
 62
     7
100
AcDbVertex
100
AcDb2dVertex
 10
1.245
 20
4.09
 30
0.0
 42
0.414214
  0
VERTEX
  5
5B8
100
AcDbEntity
  8
0
  6
CONTINUOUS
 62
     7
100
AcDbVertex
100
AcDb2dVertex
 10
1.335
 20
4.0
 30
0.0
  0
VERTEX
  5
5B9
100
AcDbEntity
  8
0
  6
CONTINUOUS
 62
     7
100
AcDbVertex
100
AcDb2dVertex
 10
1.425
 20
4.0
 30
0.0
  0
SEQEND
  5
5BA
100
AcDbEntity
  8
0
  6
CONTINUOUS
 62
     7
  0
ENDBLK
  5
5BC
100
AcDbEntity
  8
0
100
AcDbBlockEnd
  0
BLOCK
  5
700
100
AcDbEntity
  8
0
100
AcDbBlockBegin
  2
BOX_CALLOUT_43
 70
    66
 10
1.447618
 20
3.876179
 30
0.0
  3
BOX_CALLOUT_43
  1

  0
POLYLINE
  5
701
100
AcDbEntity
  8
DIMENSIONS
  6
CONTINUOUS
 62
     7
100
AcDb2dPolyline
 66
     1
 10
0.0
 20
0.0
 30
0.0
  0
VERTEX
  5
702
100
AcDbEntity
  8
DIMENSIONS
  6
CONTINUOUS
 62
     7
100
AcDbVertex
100
AcDb2dVertex
 10
1.759994
 20
4.027602
 30
0.0
  0
VERTEX
  5
703
100
AcDbEntity
  8
DIMENSIONS
  6
CONTINUOUS
 62
     7
100
AcDbVertex
100
AcDb2dVertex
 10
1.675315
 20
4.014306
 30
0.0
  0
SEQEND
  5
704
100
AcDbEntity
  8
DIMENSIONS
  6
CONTINUOUS
 62
     7
  0
POLYLINE
  5
705
100
AcDbEntity
  8
DIMENSIONS
  6
CONTINUOUS
 62
     7
100
AcDb2dPolyline
 66
     1
 10
0.0
 20
0.0
 30
0.0
  0
VERTEX
  5
706
100
AcDbEntity
  8
DIMENSIONS
  6
CONTINUOUS
 62
     7
100
AcDbVertex
100
AcDb2dVertex
 10
1.135243
 20
3.724757
 30
0.0
  0
VERTEX
  5
707
100
AcDbEntity
  8
DIMENSIONS
  6
CONTINUOUS
 62
     7
100
AcDbVertex
100
AcDb2dVertex
 10
1.335243
 20
3.724757
 30
0.0
  0
VERTEX
  5
708
100
AcDbEntity
  8
DIMENSIONS
  6
CONTINUOUS
 62
     7
100
AcDbVertex
100
AcDb2dVertex
 10
1.759994
 20
4.027602
 30
0.0
  0
SEQEND
  5
709
100
AcDbEntity
  8
DIMENSIONS
  6
CONTINUOUS
 62
     7
  0
POLYLINE
  5
70A
100
AcDbEntity
  8
DIMENSIONS
  6
CONTINUOUS
 62
     7
100
AcDb2dPolyline
 66
     1
 10
0.0
 20
0.0
 30
0.0
 70
     1
  0
VERTEX
  5
70B
100
AcDbEntity
  8
DIMENSIONS
  6
CONTINUOUS
 62
     7
100
AcDbVertex
100
AcDb2dVertex
 10
1.135243
 20
3.591424
 30
0.0
  0
VERTEX
  5
70C
100
AcDbEntity
  8
DIMENSIONS
  6
CONTINUOUS
 62
     7
100
AcDbVertex
100
AcDb2dVertex
 10
1.135243
 20
3.858091
 30
0.0
  0
VERTEX
  5
70D
100
AcDbEntity
  8
DIMENSIONS
  6
CONTINUOUS
 62
     7
100
AcDbVertex
100
AcDb2dVertex
 10
0.659765
 20
3.858091
 30
0.0
  0
VERTEX
  5
70E
100
AcDbEntity
  8
DIMENSIONS
  6
CONTINUOUS
 62
     7
100
AcDbVertex
100
AcDb2dVertex
 10
0.659765
 20
3.591424
 30
0.0
  0
SEQEND
  5
70F
100
AcDbEntity
  8
DIMENSIONS
  6
CONTINUOUS
 62
     7
  0
TEXT
  5
710
100
AcDbEntity
  8
DIMENSIONS
 62
     7
100
AcDbText
 10
0.595421
 20
3.683091
 30
0.0
 40
0.111111
  1
Injector
  7
_GDT_CALLOUT
 72
     1
 11
0.897504
 21
3.724757
 31
0.0
100
AcDbText
 73
     2
  0
ENDBLK
  5
712
100
AcDbEntity
  8
0
100
AcDbBlockEnd
  0
BLOCK
  5
714
100
AcDbEntity
  8
0
100
AcDbBlockBegin
  2
BOX_CALLOUT_44
 70
    66
 10
0.466002
 20
5.890544
 30
0.0
  3
BOX_CALLOUT_44
  1

  0
POLYLINE
  5
715
100
AcDbEntity
  8
DIMENSIONS
  6
CONTINUOUS
 62
     7
100
AcDb2dPolyline
 66
     1
 10
0.0
 20
0.0
 30
0.0
  0
VERTEX
  5
716
100
AcDbEntity
  8
DIMENSIONS
  6
CONTINUOUS
 62
     7
100
AcDbVertex
100
AcDb2dVertex
 10
0.340127
 20
4.456835
 30
0.0
  0
VERTEX
  5
717
100
AcDbEntity
  8
DIMENSIONS
  6
CONTINUOUS
 62
     7
100
AcDbVertex
100
AcDb2dVertex
 10
0.379837
 20
4.532797
 30
0.0
  0
SEQEND
  5
718
100
AcDbEntity
  8
DIMENSIONS
  6
CONTINUOUS
 62
     7
  0
POLYLINE
  5
719
100
AcDbEntity
  8
DIMENSIONS
  6
CONTINUOUS
 62
     7
100
AcDb2dPolyline
 66
     1
 10
0.0
 20
0.0
 30
0.0
  0
VERTEX
  5
71A
100
AcDbEntity
  8
DIMENSIONS
  6
CONTINUOUS
 62
     7
100
AcDbVertex
100
AcDb2dVertex
 10
0.591878
 20
7.324253
 30
0.0
  0
VERTEX
  5
71B
100
AcDbEntity
  8
DIMENSIONS
  6
CONTINUOUS
 62
     7
100
AcDbVertex
100
AcDb2dVertex
 10
0.391878
 20
7.324253
 30
0.0
  0
VERTEX
  5
71C
100
AcDbEntity
  8
DIMENSIONS
  6
CONTINUOUS
 62
     7
100
AcDbVertex
100
AcDb2dVertex
 10
0.340127
 20
4.456835
 30
0.0
  0
SEQEND
  5
71D
100
AcDbEntity
  8
DIMENSIONS
  6
CONTINUOUS
 62
     7
  0
POLYLINE
  5
71E
100
AcDbEntity
  8
DIMENSIONS
  6
CONTINUOUS
 62
     7
100
AcDb2dPolyline
 66
     1
 10
0.0
 20
0.0
 30
0.0
 70
     1
  0
VERTEX
  5
71F
100
AcDbEntity
  8
DIMENSIONS
  6
CONTINUOUS
 62
     7
100
AcDbVertex
100
AcDb2dVertex
 10
0.591878
 20
7.535364
 30
0.0
  0
VERTEX
  5
720
100
AcDbEntity
  8
DIMENSIONS
  6
CONTINUOUS
 62
     7
100
AcDbVertex
100
AcDb2dVertex
 10
0.591878
 20
7.113142
 30
0.0
  0
VERTEX
  5
721
100
AcDbEntity
  8
DIMENSIONS
  6
CONTINUOUS
 62
     7
100
AcDbVertex
100
AcDb2dVertex
 10
1.549126
 20
7.113142
 30
0.0
  0
VERTEX
  5
722
100
AcDbEntity
  8
DIMENSIONS
  6
CONTINUOUS
 62
     7
100
AcDbVertex
100
AcDb2dVertex
 10
1.549126
 20
7.535364
 30
0.0
  0
SEQEND
  5
723
100
AcDbEntity
  8
DIMENSIONS
  6
CONTINUOUS
 62
     7
  0
TEXT
  5
724
100
AcDbEntity
  8
DIMENSIONS
 62
     7
100
AcDbText
 10
0.779414
 20
7.467771
 30
0.0
 40
0.111111
  1
Braided
  7
_GDT_CALLOUT
 72
     1
 11
1.070502
 21
7.509438
 31
0.0
100
AcDbText
 73
     2
  0
TEXT
  5
725
100
AcDbEntity
  8
DIMENSIONS
 62
     7
100
AcDbText
 10
0.72328
 20
7.282586
 30
0.0
 40
0.111111
  1
stainless
  7
_GDT_CALLOUT
 72
     1
 11
1.070502
 21
7.324253
 31
0.0
100
AcDbText
 73
     2
  0
TEXT
  5
726
100
AcDbEntity
  8
DIMENSIONS
 62
     7
100
AcDbText
 10
0.69666
 20
7.097401
 30
0.0
 40
0.111111
  1
steel line
  7
_GDT_CALLOUT
 72
     1
 11
1.070502
 21
7.139067
 31
0.0
100
AcDbText
 73
     2
  0
ENDBLK
  5
728
100
AcDbEntity
  8
0
100
AcDbBlockEnd
  0
BLOCK
  5
72A
100
AcDbEntity
  8
0
100
AcDbBlockBegin
  2
SHEET_4
 70
    66
 10
1.753
 20
2.47
 30
0.0
  3
SHEET_4
  1

  0
POLYLINE
  5
72B
100
AcDbEntity
  8
0
  6
DASHED2
 62
     7
100
AcDb2dPolyline
 66
     1
 10
0.0
 20
0.0
 30
0.0
  0
VERTEX
  5
72C
100
AcDbEntity
  8
0
  6
DASHED2
 62
     7
100
AcDbVertex
100
AcDb2dVertex
 10
1.424429
 20
2.57
 30
0.0
  0
VERTEX
  5
72D
100
AcDbEntity
  8
0
  6
DASHED2
 62
     7
100
AcDbVertex
100
AcDb2dVertex
 10
1.960143
 20
2.57
 30
0.0
  0
SEQEND
  5
72E
100
AcDbEntity
  8
0
  6
DASHED2
 62
     7
  0
POLYLINE
  5
72F
100
AcDbEntity
  8
0
  6
DASHED2
 62
     7
100
AcDb2dPolyline
 66
     1
 10
0.0
 20
0.0
 30
0.0
  0
VERTEX
  5
730
100
AcDbEntity
  8
0
  6
DASHED2
 62
     7
100
AcDbVertex
100
AcDb2dVertex
 10
1.424429
 20
2.37
 30
0.0
  0
VERTEX
  5
731
100
AcDbEntity
  8
0
  6
DASHED2
 62
     7
100
AcDbVertex
100
AcDb2dVertex
 10
1.960143
 20
2.37
 30
0.0
  0
SEQEND
  5
732
100
AcDbEntity
  8
0
  6
DASHED2
 62
     7
  0
POLYLINE
  5
733
100
AcDbEntity
  8
0
  6
CONTINUOUS
 62
     7
100
AcDb2dPolyline
 66
     1
 10
0.0
 20
0.0
 30
0.0
  0
VERTEX
  5
734
100
AcDbEntity
  8
0
  6
CONTINUOUS
 62
     7
100
AcDbVertex
100
AcDb2dVertex
 10
1.960143
 20
2.67
 30
0.0
  0
VERTEX
  5
735
100
AcDbEntity
  8
0
  6
CONTINUOUS
 62
     7
100
AcDbVertex
100
AcDb2dVertex
 10
1.960143
 20
2.27
 30
0.0
  0
SEQEND
  5
736
100
AcDbEntity
  8
0
  6
CONTINUOUS
 62
     7
  0
POLYLINE
  5
737
100
AcDbEntity
  8
0
  6
CONTINUOUS
 62
     7
100
AcDb2dPolyline
 66
     1
 10
0.0
 20
0.0
 30
0.0
  0
VERTEX
  5
738
100
AcDbEntity
  8
0
  6
CONTINUOUS
 62
     7
100
AcDbVertex
100
AcDb2dVertex
 10
1.960143
 20
2.67
 30
0.0
  0
VERTEX
  5
739
100
AcDbEntity
  8
0
  6
CONTINUOUS
 62
     7
100
AcDbVertex
100
AcDb2dVertex
 10
2.103
 20
2.67
 30
0.0
  0
SEQEND
  5
73A
100
AcDbEntity
  8
0
  6
CONTINUOUS
 62
     7
  0
POLYLINE
  5
73B
100
AcDbEntity
  8
0
  6
CONTINUOUS
 62
     7
100
AcDb2dPolyline
 66
     1
 10
0.0
 20
0.0
 30
0.0
  0
VERTEX
  5
73C
100
AcDbEntity
  8
0
  6
CONTINUOUS
 62
     7
100
AcDbVertex
100
AcDb2dVertex
 10
2.103
 20
2.67
 30
0.0
  0
VERTEX
  5
73D
100
AcDbEntity
  8
0
  6
CONTINUOUS
 62
     7
100
AcDbVertex
100
AcDb2dVertex
 10
2.195857
 20
2.605
 30
0.0
  0
SEQEND
  5
73E
100
AcDbEntity
  8
0
  6
CONTINUOUS
 62
     7
  0
POLYLINE
  5
73F
100
AcDbEntity
  8
0
  6
CONTINUOUS
 62
     7
100
AcDb2dPolyline
 66
     1
 10
0.0
 20
0.0
 30
0.0
  0
VERTEX
  5
740
100
AcDbEntity
  8
0
  6
CONTINUOUS
 62
     7
100
AcDbVertex
100
AcDb2dVertex
 10
2.195857
 20
2.605
 30
0.0
  0
VERTEX
  5
741
100
AcDbEntity
  8
0
  6
CONTINUOUS
 62
     7
100
AcDbVertex
100
AcDb2dVertex
 10
2.195857
 20
2.335
 30
0.0
  0
SEQEND
  5
742
100
AcDbEntity
  8
0
  6
CONTINUOUS
 62
     7
  0
POLYLINE
  5
743
100
AcDbEntity
  8
0
  6
CONTINUOUS
 62
     7
100
AcDb2dPolyline
 66
     1
 10
0.0
 20
0.0
 30
0.0
  0
VERTEX
  5
744
100
AcDbEntity
  8
0
  6
CONTINUOUS
 62
     7
100
AcDbVertex
100
AcDb2dVertex
 10
1.960143
 20
2.27
 30
0.0
  0
VERTEX
  5
745
100
AcDbEntity
  8
0
  6
CONTINUOUS
 62
     7
100
AcDbVertex
100
AcDb2dVertex
 10
2.103
 20
2.27
 30
0.0
  0
SEQEND
  5
746
100
AcDbEntity
  8
0
  6
CONTINUOUS
 62
     7
  0
POLYLINE
  5
747
100
AcDbEntity
  8
0
  6
CONTINUOUS
 62
     7
100
AcDb2dPolyline
 66
     1
 10
0.0
 20
0.0
 30
0.0
  0
VERTEX
  5
748
100
AcDbEntity
  8
0
  6
CONTINUOUS
 62
     7
100
AcDbVertex
100
AcDb2dVertex
 10
2.103
 20
2.27
 30
0.0
  0
VERTEX
  5
749
100
AcDbEntity
  8
0
  6
CONTINUOUS
 62
     7
100
AcDbVertex
100
AcDb2dVertex
 10
2.195857
 20
2.335
 30
0.0
  0
SEQEND
  5
74A
100
AcDbEntity
  8
0
  6
CONTINUOUS
 62
     7
  0
POLYLINE
  5
74B
100
AcDbEntity
  8
0
  6
CONTINUOUS
 62
     7
100
AcDb2dPolyline
 66
     1
 10
0.0
 20
0.0
 30
0.0
  0
VERTEX
  5
74C
100
AcDbEntity
  8
0
  6
CONTINUOUS
 62
     7
100
AcDbVertex
100
AcDb2dVertex
 10
1.960143
 20
2.4
 30
0.0
  0
VERTEX
  5
74D
100
AcDbEntity
  8
0
  6
CONTINUOUS
 62
     7
100
AcDbVertex
100
AcDb2dVertex
 10
2.131571
 20
2.4
 30
0.0
  0
SEQEND
  5
74E
100
AcDbEntity
  8
0
  6
CONTINUOUS
 62
     7
  0
POLYLINE
  5
74F
100
AcDbEntity
  8
0
  6
CONTINUOUS
 62
     7
100
AcDb2dPolyline
 66
     1
 10
0.0
 20
0.0
 30
0.0
  0
VERTEX
  5
750
100
AcDbEntity
  8
0
  6
CONTINUOUS
 62
     7
100
AcDbVertex
100
AcDb2dVertex
 10
1.960143
 20
2.54
 30
0.0
  0
VERTEX
  5
751
100
AcDbEntity
  8
0
  6
CONTINUOUS
 62
     7
100
AcDbVertex
100
AcDb2dVertex
 10
2.131571
 20
2.54
 30
0.0
  0
SEQEND
  5
752
100
AcDbEntity
  8
0
  6
CONTINUOUS
 62
     7
  0
POLYLINE
  5
753
100
AcDbEntity
  8
0
  6
CONTINUOUS
 62
     7
100
AcDb2dPolyline
 66
     1
 10
0.0
 20
0.0
 30
0.0
  0
VERTEX
  5
754
100
AcDbEntity
  8
0
  6
CONTINUOUS
 62
     7
100
AcDbVertex
100
AcDb2dVertex
 10
2.131571
 20
2.54
 30
0.0
  0
VERTEX
  5
755
100
AcDbEntity
  8
0
  6
CONTINUOUS
 62
     7
100
AcDbVertex
100
AcDb2dVertex
 10
2.195857
 20
2.57
 30
0.0
  0
SEQEND
  5
756
100
AcDbEntity
  8
0
  6
CONTINUOUS
 62
     7
  0
POLYLINE
  5
757
100
AcDbEntity
  8
0
  6
CONTINUOUS
 62
     7
100
AcDb2dPolyline
 66
     1
 10
0.0
 20
0.0
 30
0.0
  0
VERTEX
  5
758
100
AcDbEntity
  8
0
  6
CONTINUOUS
 62
     7
100
AcDbVertex
100
AcDb2dVertex
 10
2.124429
 20
2.54
 30
0.0
  0
VERTEX
  5
759
100
AcDbEntity
  8
0
  6
CONTINUOUS
 62
     7
100
AcDbVertex
100
AcDb2dVertex
 10
2.195857
 20
2.51
 30
0.0
  0
SEQEND
  5
75A
100
AcDbEntity
  8
0
  6
CONTINUOUS
 62
     7
  0
POLYLINE
  5
75B
100
AcDbEntity
  8
0
  6
CONTINUOUS
 62
     7
100
AcDb2dPolyline
 66
     1
 10
0.0
 20
0.0
 30
0.0
  0
VERTEX
  5
75C
100
AcDbEntity
  8
0
  6
CONTINUOUS
 62
     7
100
AcDbVertex
100
AcDb2dVertex
 10
2.131571
 20
2.4
 30
0.0
  0
VERTEX
  5
75D
100
AcDbEntity
  8
0
  6
CONTINUOUS
 62
     7
100
AcDbVertex
100
AcDb2dVertex
 10
2.195857
 20
2.43
 30
0.0
  0
SEQEND
  5
75E
100
AcDbEntity
  8
0
  6
CONTINUOUS
 62
     7
  0
POLYLINE
  5
75F
100
AcDbEntity
  8
0
  6
CONTINUOUS
 62
     7
100
AcDb2dPolyline
 66
     1
 10
0.0
 20
0.0
 30
0.0
  0
VERTEX
  5
760
100
AcDbEntity
  8
0
  6
CONTINUOUS
 62
     7
100
AcDbVertex
100
AcDb2dVertex
 10
2.124429
 20
2.4
 30
0.0
  0
VERTEX
  5
761
100
AcDbEntity
  8
0
  6
CONTINUOUS
 62
     7
100
AcDbVertex
100
AcDb2dVertex
 10
2.195857
 20
2.37
 30
0.0
  0
SEQEND
  5
762
100
AcDbEntity
  8
0
  6
CONTINUOUS
 62
     7
  0
POLYLINE
  5
763
100
AcDbEntity
  8
0
  6
CONTINUOUS
 62
     7
100
AcDb2dPolyline
 66
     1
 10
0.0
 20
0.0
 30
0.0
  0
VERTEX
  5
764
100
AcDbEntity
  8
0
  6
CONTINUOUS
 62
     7
100
AcDbVertex
100
AcDb2dVertex
 10
2.195857
 20
2.54
 30
0.0
  0
VERTEX
  5
765
100
AcDbEntity
  8
0
  6
CONTINUOUS
 62
     7
100
AcDbVertex
100
AcDb2dVertex
 10
2.317286
 20
2.54
 30
0.0
  0
SEQEND
  5
766
100
AcDbEntity
  8
0
  6
CONTINUOUS
 62
     7
  0
POLYLINE
  5
767
100
AcDbEntity
  8
0
  6
CONTINUOUS
 62
     7
100
AcDb2dPolyline
 66
     1
 10
0.0
 20
0.0
 30
0.0
  0
VERTEX
  5
768
100
AcDbEntity
  8
0
  6
CONTINUOUS
 62
     7
100
AcDbVertex
100
AcDb2dVertex
 10
2.195857
 20
2.4
 30
0.0
  0
VERTEX
  5
769
100
AcDbEntity
  8
0
  6
CONTINUOUS
 62
     7
100
AcDbVertex
100
AcDb2dVertex
 10
2.317286
 20
2.4
 30
0.0
  0
VERTEX
  5
76A
100
AcDbEntity
  8
0
  6
CONTINUOUS
 62
     7
100
AcDbVertex
100
AcDb2dVertex
 10
2.317286
 20
2.54
 30
0.0
  0
SEQEND
  5
76B
100
AcDbEntity
  8
0
  6
CONTINUOUS
 62
     7
  0
POLYLINE
  5
76C
100
AcDbEntity
  8
0
  6
CONTINUOUS
 62
     7
100
AcDb2dPolyline
 66
     1
 10
0.0
 20
0.0
 30
0.0
  0
VERTEX
  5
76D
100
AcDbEntity
  8
0
  6
CONTINUOUS
 62
     7
100
AcDbVertex
100
AcDb2dVertex
 10
2.203
 20
2.4
 30
0.0
  0
VERTEX
  5
76E
100
AcDbEntity
  8
0
  6
CONTINUOUS
 62
     7
100
AcDbVertex
100
AcDb2dVertex
 10
2.245857
 20
2.54
 30
0.0
  0
SEQEND
  5
76F
100
AcDbEntity
  8
0
  6
CONTINUOUS
 62
     7
  0
POLYLINE
  5
770
100
AcDbEntity
  8
0
  6
CONTINUOUS
 62
     7
100
AcDb2dPolyline
 66
     1
 10
0.0
 20
0.0
 30
0.0
  0
VERTEX
  5
771
100
AcDbEntity
  8
0
  6
CONTINUOUS
 62
     7
100
AcDbVertex
100
AcDb2dVertex
 10
2.274429
 20
2.4
 30
0.0
  0
VERTEX
  5
772
100
AcDbEntity
  8
0
  6
CONTINUOUS
 62
     7
100
AcDbVertex
100
AcDb2dVertex
 10
2.317286
 20
2.5
 30
0.0
  0
SEQEND
  5
773
100
AcDbEntity
  8
0
  6
CONTINUOUS
 62
     7
  0
POLYLINE
  5
774
100
AcDbEntity
  8
0
  6
CONTINUOUS
 62
     7
100
AcDb2dPolyline
 66
     1
 10
0.0
 20
0.0
 30
0.0
  0
VERTEX
  5
775
100
AcDbEntity
  8
0
  6
CONTINUOUS
 62
     7
100
AcDbVertex
100
AcDb2dVertex
 10
1.424429
 20
2.67
 30
0.0
  0
VERTEX
  5
776
100
AcDbEntity
  8
0
  6
CONTINUOUS
 62
     7
100
AcDbVertex
100
AcDb2dVertex
 10
1.424429
 20
2.27
 30
0.0
  0
SEQEND
  5
777
100
AcDbEntity
  8
0
  6
CONTINUOUS
 62
     7
  0
POLYLINE
  5
778
100
AcDbEntity
  8
0
  6
CONTINUOUS
 62
     7
100
AcDb2dPolyline
 66
     1
 10
0.0
 20
0.0
 30
0.0
  0
VERTEX
  5
779
100
AcDbEntity
  8
0
  6
CONTINUOUS
 62
     7
100
AcDbVertex
100
AcDb2dVertex
 10
1.424429
 20
2.67
 30
0.0
  0
VERTEX
  5
77A
100
AcDbEntity
  8
0
  6
CONTINUOUS
 62
     7
100
AcDbVertex
100
AcDb2dVertex
 10
1.281571
 20
2.67
 30
0.0
  0
SEQEND
  5
77B
100
AcDbEntity
  8
0
  6
CONTINUOUS
 62
     7
  0
POLYLINE
  5
77C
100
AcDbEntity
  8
0
  6
CONTINUOUS
 62
     7
100
AcDb2dPolyline
 66
     1
 10
0.0
 20
0.0
 30
0.0
  0
VERTEX
  5
77D
100
AcDbEntity
  8
0
  6
CONTINUOUS
 62
     7
100
AcDbVertex
100
AcDb2dVertex
 10
1.281571
 20
2.67
 30
0.0
  0
VERTEX
  5
77E
100
AcDbEntity
  8
0
  6
CONTINUOUS
 62
     7
100
AcDbVertex
100
AcDb2dVertex
 10
1.188714
 20
2.605
 30
0.0
  0
SEQEND
  5
77F
100
AcDbEntity
  8
0
  6
CONTINUOUS
 62
     7
  0
POLYLINE
  5
780
100
AcDbEntity
  8
0
  6
CONTINUOUS
 62
     7
100
AcDb2dPolyline
 66
     1
 10
0.0
 20
0.0
 30
0.0
  0
VERTEX
  5
781
100
AcDbEntity
  8
0
  6
CONTINUOUS
 62
     7
100
AcDbVertex
100
AcDb2dVertex
 10
1.188714
 20
2.605
 30
0.0
  0
VERTEX
  5
782
100
AcDbEntity
  8
0
  6
CONTINUOUS
 62
     7
100
AcDbVertex
100
AcDb2dVertex
 10
1.188714
 20
2.335
 30
0.0
  0
SEQEND
  5
783
100
AcDbEntity
  8
0
  6
CONTINUOUS
 62
     7
  0
POLYLINE
  5
784
100
AcDbEntity
  8
0
  6
CONTINUOUS
 62
     7
100
AcDb2dPolyline
 66
     1
 10
0.0
 20
0.0
 30
0.0
  0
VERTEX
  5
785
100
AcDbEntity
  8
0
  6
CONTINUOUS
 62
     7
100
AcDbVertex
100
AcDb2dVertex
 10
1.424429
 20
2.27
 30
0.0
  0
VERTEX
  5
786
100
AcDbEntity
  8
0
  6
CONTINUOUS
 62
     7
100
AcDbVertex
100
AcDb2dVertex
 10
1.281571
 20
2.27
 30
0.0
  0
SEQEND
  5
787
100
AcDbEntity
  8
0
  6
CONTINUOUS
 62
     7
  0
POLYLINE
  5
788
100
AcDbEntity
  8
0
  6
CONTINUOUS
 62
     7
100
AcDb2dPolyline
 66
     1
 10
0.0
 20
0.0
 30
0.0
  0
VERTEX
  5
789
100
AcDbEntity
  8
0
  6
CONTINUOUS
 62
     7
100
AcDbVertex
100
AcDb2dVertex
 10
1.281571
 20
2.27
 30
0.0
  0
VERTEX
  5
78A
100
AcDbEntity
  8
0
  6
CONTINUOUS
 62
     7
100
AcDbVertex
100
AcDb2dVertex
 10
1.188714
 20
2.335
 30
0.0
  0
SEQEND
  5
78B
100
AcDbEntity
  8
0
  6
CONTINUOUS
 62
     7
  0
POLYLINE
  5
78C
100
AcDbEntity
  8
0
  6
CONTINUOUS
 62
     7
100
AcDb2dPolyline
 66
     1
 10
0.0
 20
0.0
 30
0.0
  0
VERTEX
  5
78D
100
AcDbEntity
  8
0
  6
CONTINUOUS
 62
     7
100
AcDbVertex
100
AcDb2dVertex
 10
1.424429
 20
2.4
 30
0.0
  0
VERTEX
  5
78E
100
AcDbEntity
  8
0
  6
CONTINUOUS
 62
     7
100
AcDbVertex
100
AcDb2dVertex
 10
1.253
 20
2.4
 30
0.0
  0
SEQEND
  5
78F
100
AcDbEntity
  8
0
  6
CONTINUOUS
 62
     7
  0
POLYLINE
  5
790
100
AcDbEntity
  8
0
  6
CONTINUOUS
 62
     7
100
AcDb2dPolyline
 66
     1
 10
0.0
 20
0.0
 30
0.0
  0
VERTEX
  5
791
100
AcDbEntity
  8
0
  6
CONTINUOUS
 62
     7
100
AcDbVertex
100
AcDb2dVertex
 10
1.424429
 20
2.54
 30
0.0
  0
VERTEX
  5
792
100
AcDbEntity
  8
0
  6
CONTINUOUS
 62
     7
100
AcDbVertex
100
AcDb2dVertex
 10
1.253
 20
2.54
 30
0.0
  0
SEQEND
  5
793
100
AcDbEntity
  8
0
  6
CONTINUOUS
 62
     7
  0
POLYLINE
  5
794
100
AcDbEntity
  8
0
  6
CONTINUOUS
 62
     7
100
AcDb2dPolyline
 66
     1
 10
0.0
 20
0.0
 30
0.0
  0
VERTEX
  5
795
100
AcDbEntity
  8
0
  6
CONTINUOUS
 62
     7
100
AcDbVertex
100
AcDb2dVertex
 10
1.253
 20
2.54
 30
0.0
  0
VERTEX
  5
796
100
AcDbEntity
  8
0
  6
CONTINUOUS
 62
     7
100
AcDbVertex
100
AcDb2dVertex
 10
1.188714
 20
2.57
 30
0.0
  0
SEQEND
  5
797
100
AcDbEntity
  8
0
  6
CONTINUOUS
 62
     7
  0
POLYLINE
  5
798
100
AcDbEntity
  8
0
  6
CONTINUOUS
 62
     7
100
AcDb2dPolyline
 66
     1
 10
0.0
 20
0.0
 30
0.0
  0
VERTEX
  5
799
100
AcDbEntity
  8
0
  6
CONTINUOUS
 62
     7
100
AcDbVertex
100
AcDb2dVertex
 10
1.260143
 20
2.54
 30
0.0
  0
VERTEX
  5
79A
100
AcDbEntity
  8
0
  6
CONTINUOUS
 62
     7
100
AcDbVertex
100
AcDb2dVertex
 10
1.188714
 20
2.51
 30
0.0
  0
SEQEND
  5
79B
100
AcDbEntity
  8
0
  6
CONTINUOUS
 62
     7
  0
POLYLINE
  5
79C
100
AcDbEntity
  8
0
  6
CONTINUOUS
 62
     7
100
AcDb2dPolyline
 66
     1
 10
0.0
 20
0.0
 30
0.0
  0
VERTEX
  5
79D
100
AcDbEntity
  8
0
  6
CONTINUOUS
 62
     7
100
AcDbVertex
100
AcDb2dVertex
 10
1.253
 20
2.4
 30
0.0
  0
VERTEX
  5
79E
100
AcDbEntity
  8
0
  6
CONTINUOUS
 62
     7
100
AcDbVertex
100
AcDb2dVertex
 10
1.188714
 20
2.43
 30
0.0
  0
SEQEND
  5
79F
100
AcDbEntity
  8
0
  6
CONTINUOUS
 62
     7
  0
POLYLINE
  5
7A0
100
AcDbEntity
  8
0
  6
CONTINUOUS
 62
     7
100
AcDb2dPolyline
 66
     1
 10
0.0
 20
0.0
 30
0.0
  0
VERTEX
  5
7A1
100
AcDbEntity
  8
0
  6
CONTINUOUS
 62
     7
100
AcDbVertex
100
AcDb2dVertex
 10
1.260143
 20
2.4
 30
0.0
  0
VERTEX
  5
7A2
100
AcDbEntity
  8
0
  6
CONTINUOUS
 62
     7
100
AcDbVertex
100
AcDb2dVertex
 10
1.188714
 20
2.37
 30
0.0
  0
SEQEND
  5
7A3
100
AcDbEntity
  8
0
  6
CONTINUOUS
 62
     7
  0
ENDBLK
  5
7A5
100
AcDbEntity
  8
0
100
AcDbBlockEnd
  0
BLOCK
  5
7A7
100
AcDbEntity
  8
0
100
AcDbBlockBegin
  2
SHEET_170
 70
    66
 10
1.753
 20
6.05
 30
0.0
  3
SHEET_170
  1

  0
POLYLINE
  5
7A8
100
AcDbEntity
  8
0
  6
DASHED2
 62
     7
100
AcDb2dPolyline
 66
     1
 10
0.0
 20
0.0
 30
0.0
  0
VERTEX
  5
7A9
100
AcDbEntity
  8
0
  6
DASHED2
 62
     7
100
AcDbVertex
100
AcDb2dVertex
 10
1.424429
 20
6.15
 30
0.0
  0
VERTEX
  5
7AA
100
AcDbEntity
  8
0
  6
DASHED2
 62
     7
100
AcDbVertex
100
AcDb2dVertex
 10
1.960143
 20
6.15
 30
0.0
  0
SEQEND
  5
7AB
100
AcDbEntity
  8
0
  6
DASHED2
 62
     7
  0
POLYLINE
  5
7AC
100
AcDbEntity
  8
0
  6
DASHED2
 62
     7
100
AcDb2dPolyline
 66
     1
 10
0.0
 20
0.0
 30
0.0
  0
VERTEX
  5
7AD
100
AcDbEntity
  8
0
  6
DASHED2
 62
     7
100
AcDbVertex
100
AcDb2dVertex
 10
1.424429
 20
5.95
 30
0.0
  0
VERTEX
  5
7AE
100
AcDbEntity
  8
0
  6
DASHED2
 62
     7
100
AcDbVertex
100
AcDb2dVertex
 10
1.960143
 20
5.95
 30
0.0
  0
SEQEND
  5
7AF
100
AcDbEntity
  8
0
  6
DASHED2
 62
     7
  0
POLYLINE
  5
7B0
100
AcDbEntity
  8
0
  6
CONTINUOUS
 62
     7
100
AcDb2dPolyline
 66
     1
 10
0.0
 20
0.0
 30
0.0
  0
VERTEX
  5
7B1
100
AcDbEntity
  8
0
  6
CONTINUOUS
 62
     7
100
AcDbVertex
100
AcDb2dVertex
 10
1.960143
 20
6.25
 30
0.0
  0
VERTEX
  5
7B2
100
AcDbEntity
  8
0
  6
CONTINUOUS
 62
     7
100
AcDbVertex
100
AcDb2dVertex
 10
1.960143
 20
5.85
 30
0.0
  0
SEQEND
  5
7B3
100
AcDbEntity
  8
0
  6
CONTINUOUS
 62
     7
  0
POLYLINE
  5
7B4
100
AcDbEntity
  8
0
  6
CONTINUOUS
 62
     7
100
AcDb2dPolyline
 66
     1
 10
0.0
 20
0.0
 30
0.0
  0
VERTEX
  5
7B5
100
AcDbEntity
  8
0
  6
CONTINUOUS
 62
     7
100
AcDbVertex
100
AcDb2dVertex
 10
1.960143
 20
6.25
 30
0.0
  0
VERTEX
  5
7B6
100
AcDbEntity
  8
0
  6
CONTINUOUS
 62
     7
100
AcDbVertex
100
AcDb2dVertex
 10
2.103
 20
6.25
 30
0.0
  0
SEQEND
  5
7B7
100
AcDbEntity
  8
0
  6
CONTINUOUS
 62
     7
  0
POLYLINE
  5
7B8
100
AcDbEntity
  8
0
  6
CONTINUOUS
 62
     7
100
AcDb2dPolyline
 66
     1
 10
0.0
 20
0.0
 30
0.0
  0
VERTEX
  5
7B9
100
AcDbEntity
  8
0
  6
CONTINUOUS
 62
     7
100
AcDbVertex
100
AcDb2dVertex
 10
2.103
 20
6.25
 30
0.0
  0
VERTEX
  5
7BA
100
AcDbEntity
  8
0
  6
CONTINUOUS
 62
     7
100
AcDbVertex
100
AcDb2dVertex
 10
2.195857
 20
6.185
 30
0.0
  0
SEQEND
  5
7BB
100
AcDbEntity
  8
0
  6
CONTINUOUS
 62
     7
  0
POLYLINE
  5
7BC
100
AcDbEntity
  8
0
  6
CONTINUOUS
 62
     7
100
AcDb2dPolyline
 66
     1
 10
0.0
 20
0.0
 30
0.0
  0
VERTEX
  5
7BD
100
AcDbEntity
  8
0
  6
CONTINUOUS
 62
     7
100
AcDbVertex
100
AcDb2dVertex
 10
2.195857
 20
6.185
 30
0.0
  0
VERTEX
  5
7BE
100
AcDbEntity
  8
0
  6
CONTINUOUS
 62
     7
100
AcDbVertex
100
AcDb2dVertex
 10
2.195857
 20
5.915
 30
0.0
  0
SEQEND
  5
7BF
100
AcDbEntity
  8
0
  6
CONTINUOUS
 62
     7
  0
POLYLINE
  5
7C0
100
AcDbEntity
  8
0
  6
CONTINUOUS
 62
     7
100
AcDb2dPolyline
 66
     1
 10
0.0
 20
0.0
 30
0.0
  0
VERTEX
  5
7C1
100
AcDbEntity
  8
0
  6
CONTINUOUS
 62
     7
100
AcDbVertex
100
AcDb2dVertex
 10
1.960143
 20
5.85
 30
0.0
  0
VERTEX
  5
7C2
100
AcDbEntity
  8
0
  6
CONTINUOUS
 62
     7
100
AcDbVertex
100
AcDb2dVertex
 10
2.103
 20
5.85
 30
0.0
  0
SEQEND
  5
7C3
100
AcDbEntity
  8
0
  6
CONTINUOUS
 62
     7
  0
POLYLINE
  5
7C4
100
AcDbEntity
  8
0
  6
CONTINUOUS
 62
     7
100
AcDb2dPolyline
 66
     1
 10
0.0
 20
0.0
 30
0.0
  0
VERTEX
  5
7C5
100
AcDbEntity
  8
0
  6
CONTINUOUS
 62
     7
100
AcDbVertex
100
AcDb2dVertex
 10
2.103
 20
5.85
 30
0.0
  0
VERTEX
  5
7C6
100
AcDbEntity
  8
0
  6
CONTINUOUS
 62
     7
100
AcDbVertex
100
AcDb2dVertex
 10
2.195857
 20
5.915
 30
0.0
  0
SEQEND
  5
7C7
100
AcDbEntity
  8
0
  6
CONTINUOUS
 62
     7
  0
POLYLINE
  5
7C8
100
AcDbEntity
  8
0
  6
CONTINUOUS
 62
     7
100
AcDb2dPolyline
 66
     1
 10
0.0
 20
0.0
 30
0.0
  0
VERTEX
  5
7C9
100
AcDbEntity
  8
0
  6
CONTINUOUS
 62
     7
100
AcDbVertex
100
AcDb2dVertex
 10
1.960143
 20
5.98
 30
0.0
  0
VERTEX
  5
7CA
100
AcDbEntity
  8
0
  6
CONTINUOUS
 62
     7
100
AcDbVertex
100
AcDb2dVertex
 10
2.131571
 20
5.98
 30
0.0
  0
SEQEND
  5
7CB
100
AcDbEntity
  8
0
  6
CONTINUOUS
 62
     7
  0
POLYLINE
  5
7CC
100
AcDbEntity
  8
0
  6
CONTINUOUS
 62
     7
100
AcDb2dPolyline
 66
     1
 10
0.0
 20
0.0
 30
0.0
  0
VERTEX
  5
7CD
100
AcDbEntity
  8
0
  6
CONTINUOUS
 62
     7
100
AcDbVertex
100
AcDb2dVertex
 10
1.960143
 20
6.12
 30
0.0
  0
VERTEX
  5
7CE
100
AcDbEntity
  8
0
  6
CONTINUOUS
 62
     7
100
AcDbVertex
100
AcDb2dVertex
 10
2.131571
 20
6.12
 30
0.0
  0
SEQEND
  5
7CF
100
AcDbEntity
  8
0
  6
CONTINUOUS
 62
     7
  0
POLYLINE
  5
7D0
100
AcDbEntity
  8
0
  6
CONTINUOUS
 62
     7
100
AcDb2dPolyline
 66
     1
 10
0.0
 20
0.0
 30
0.0
  0
VERTEX
  5
7D1
100
AcDbEntity
  8
0
  6
CONTINUOUS
 62
     7
100
AcDbVertex
100
AcDb2dVertex
 10
2.131571
 20
6.12
 30
0.0
  0
VERTEX
  5
7D2
100
AcDbEntity
  8
0
  6
CONTINUOUS
 62
     7
100
AcDbVertex
100
AcDb2dVertex
 10
2.195857
 20
6.15
 30
0.0
  0
SEQEND
  5
7D3
100
AcDbEntity
  8
0
  6
CONTINUOUS
 62
     7
  0
POLYLINE
  5
7D4
100
AcDbEntity
  8
0
  6
CONTINUOUS
 62
     7
100
AcDb2dPolyline
 66
     1
 10
0.0
 20
0.0
 30
0.0
  0
VERTEX
  5
7D5
100
AcDbEntity
  8
0
  6
CONTINUOUS
 62
     7
100
AcDbVertex
100
AcDb2dVertex
 10
2.124429
 20
6.12
 30
0.0
  0
VERTEX
  5
7D6
100
AcDbEntity
  8
0
  6
CONTINUOUS
 62
     7
100
AcDbVertex
100
AcDb2dVertex
 10
2.195857
 20
6.09
 30
0.0
  0
SEQEND
  5
7D7
100
AcDbEntity
  8
0
  6
CONTINUOUS
 62
     7
  0
POLYLINE
  5
7D8
100
AcDbEntity
  8
0
  6
CONTINUOUS
 62
     7
100
AcDb2dPolyline
 66
     1
 10
0.0
 20
0.0
 30
0.0
  0
VERTEX
  5
7D9
100
AcDbEntity
  8
0
  6
CONTINUOUS
 62
     7
100
AcDbVertex
100
AcDb2dVertex
 10
2.131571
 20
5.98
 30
0.0
  0
VERTEX
  5
7DA
100
AcDbEntity
  8
0
  6
CONTINUOUS
 62
     7
100
AcDbVertex
100
AcDb2dVertex
 10
2.195857
 20
6.01
 30
0.0
  0
SEQEND
  5
7DB
100
AcDbEntity
  8
0
  6
CONTINUOUS
 62
     7
  0
POLYLINE
  5
7DC
100
AcDbEntity
  8
0
  6
CONTINUOUS
 62
     7
100
AcDb2dPolyline
 66
     1
 10
0.0
 20
0.0
 30
0.0
  0
VERTEX
  5
7DD
100
AcDbEntity
  8
0
  6
CONTINUOUS
 62
     7
100
AcDbVertex
100
AcDb2dVertex
 10
2.124429
 20
5.98
 30
0.0
  0
VERTEX
  5
7DE
100
AcDbEntity
  8
0
  6
CONTINUOUS
 62
     7
100
AcDbVertex
100
AcDb2dVertex
 10
2.195857
 20
5.95
 30
0.0
  0
SEQEND
  5
7DF
100
AcDbEntity
  8
0
  6
CONTINUOUS
 62
     7
  0
POLYLINE
  5
7E0
100
AcDbEntity
  8
0
  6
CONTINUOUS
 62
     7
100
AcDb2dPolyline
 66
     1
 10
0.0
 20
0.0
 30
0.0
  0
VERTEX
  5
7E1
100
AcDbEntity
  8
0
  6
CONTINUOUS
 62
     7
100
AcDbVertex
100
AcDb2dVertex
 10
2.195857
 20
6.12
 30
0.0
  0
VERTEX
  5
7E2
100
AcDbEntity
  8
0
  6
CONTINUOUS
 62
     7
100
AcDbVertex
100
AcDb2dVertex
 10
2.317286
 20
6.12
 30
0.0
  0
SEQEND
  5
7E3
100
AcDbEntity
  8
0
  6
CONTINUOUS
 62
     7
  0
POLYLINE
  5
7E4
100
AcDbEntity
  8
0
  6
CONTINUOUS
 62
     7
100
AcDb2dPolyline
 66
     1
 10
0.0
 20
0.0
 30
0.0
  0
VERTEX
  5
7E5
100
AcDbEntity
  8
0
  6
CONTINUOUS
 62
     7
100
AcDbVertex
100
AcDb2dVertex
 10
2.195857
 20
5.98
 30
0.0
  0
VERTEX
  5
7E6
100
AcDbEntity
  8
0
  6
CONTINUOUS
 62
     7
100
AcDbVertex
100
AcDb2dVertex
 10
2.317286
 20
5.98
 30
0.0
  0
VERTEX
  5
7E7
100
AcDbEntity
  8
0
  6
CONTINUOUS
 62
     7
100
AcDbVertex
100
AcDb2dVertex
 10
2.317286
 20
6.12
 30
0.0
  0
SEQEND
  5
7E8
100
AcDbEntity
  8
0
  6
CONTINUOUS
 62
     7
  0
POLYLINE
  5
7E9
100
AcDbEntity
  8
0
  6
CONTINUOUS
 62
     7
100
AcDb2dPolyline
 66
     1
 10
0.0
 20
0.0
 30
0.0
  0
VERTEX
  5
7EA
100
AcDbEntity
  8
0
  6
CONTINUOUS
 62
     7
100
AcDbVertex
100
AcDb2dVertex
 10
2.203
 20
5.98
 30
0.0
  0
VERTEX
  5
7EB
100
AcDbEntity
  8
0
  6
CONTINUOUS
 62
     7
100
AcDbVertex
100
AcDb2dVertex
 10
2.245857
 20
6.12
 30
0.0
  0
SEQEND
  5
7EC
100
AcDbEntity
  8
0
  6
CONTINUOUS
 62
     7
  0
POLYLINE
  5
7ED
100
AcDbEntity
  8
0
  6
CONTINUOUS
 62
     7
100
AcDb2dPolyline
 66
     1
 10
0.0
 20
0.0
 30
0.0
  0
VERTEX
  5
7EE
100
AcDbEntity
  8
0
  6
CONTINUOUS
 62
     7
100
AcDbVertex
100
AcDb2dVertex
 10
2.274429
 20
5.98
 30
0.0
  0
VERTEX
  5
7EF
100
AcDbEntity
  8
0
  6
CONTINUOUS
 62
     7
100
AcDbVertex
100
AcDb2dVertex
 10
2.317286
 20
6.08
 30
0.0
  0
SEQEND
  5
7F0
100
AcDbEntity
  8
0
  6
CONTINUOUS
 62
     7
  0
POLYLINE
  5
7F1
100
AcDbEntity
  8
0
  6
CONTINUOUS
 62
     7
100
AcDb2dPolyline
 66
     1
 10
0.0
 20
0.0
 30
0.0
  0
VERTEX
  5
7F2
100
AcDbEntity
  8
0
  6
CONTINUOUS
 62
     7
100
AcDbVertex
100
AcDb2dVertex
 10
1.424429
 20
6.25
 30
0.0
  0
VERTEX
  5
7F3
100
AcDbEntity
  8
0
  6
CONTINUOUS
 62
     7
100
AcDbVertex
100
AcDb2dVertex
 10
1.424429
 20
5.85
 30
0.0
  0
SEQEND
  5
7F4
100
AcDbEntity
  8
0
  6
CONTINUOUS
 62
     7
  0
POLYLINE
  5
7F5
100
AcDbEntity
  8
0
  6
CONTINUOUS
 62
     7
100
AcDb2dPolyline
 66
     1
 10
0.0
 20
0.0
 30
0.0
  0
VERTEX
  5
7F6
100
AcDbEntity
  8
0
  6
CONTINUOUS
 62
     7
100
AcDbVertex
100
AcDb2dVertex
 10
1.424429
 20
6.25
 30
0.0
  0
VERTEX
  5
7F7
100
AcDbEntity
  8
0
  6
CONTINUOUS
 62
     7
100
AcDbVertex
100
AcDb2dVertex
 10
1.281571
 20
6.25
 30
0.0
  0
SEQEND
  5
7F8
100
AcDbEntity
  8
0
  6
CONTINUOUS
 62
     7
  0
POLYLINE
  5
7F9
100
AcDbEntity
  8
0
  6
CONTINUOUS
 62
     7
100
AcDb2dPolyline
 66
     1
 10
0.0
 20
0.0
 30
0.0
  0
VERTEX
  5
7FA
100
AcDbEntity
  8
0
  6
CONTINUOUS
 62
     7
100
AcDbVertex
100
AcDb2dVertex
 10
1.281571
 20
6.25
 30
0.0
  0
VERTEX
  5
7FB
100
AcDbEntity
  8
0
  6
CONTINUOUS
 62
     7
100
AcDbVertex
100
AcDb2dVertex
 10
1.188714
 20
6.185
 30
0.0
  0
SEQEND
  5
7FC
100
AcDbEntity
  8
0
  6
CONTINUOUS
 62
     7
  0
POLYLINE
  5
7FD
100
AcDbEntity
  8
0
  6
CONTINUOUS
 62
     7
100
AcDb2dPolyline
 66
     1
 10
0.0
 20
0.0
 30
0.0
  0
VERTEX
  5
7FE
100
AcDbEntity
  8
0
  6
CONTINUOUS
 62
     7
100
AcDbVertex
100
AcDb2dVertex
 10
1.188714
 20
6.185
 30
0.0
  0
VERTEX
  5
7FF
100
AcDbEntity
  8
0
  6
CONTINUOUS
 62
     7
100
AcDbVertex
100
AcDb2dVertex
 10
1.188714
 20
5.915
 30
0.0
  0
SEQEND
  5
800
100
AcDbEntity
  8
0
  6
CONTINUOUS
 62
     7
  0
POLYLINE
  5
801
100
AcDbEntity
  8
0
  6
CONTINUOUS
 62
     7
100
AcDb2dPolyline
 66
     1
 10
0.0
 20
0.0
 30
0.0
  0
VERTEX
  5
802
100
AcDbEntity
  8
0
  6
CONTINUOUS
 62
     7
100
AcDbVertex
100
AcDb2dVertex
 10
1.424429
 20
5.85
 30
0.0
  0
VERTEX
  5
803
100
AcDbEntity
  8
0
  6
CONTINUOUS
 62
     7
100
AcDbVertex
100
AcDb2dVertex
 10
1.281571
 20
5.85
 30
0.0
  0
SEQEND
  5
804
100
AcDbEntity
  8
0
  6
CONTINUOUS
 62
     7
  0
POLYLINE
  5
805
100
AcDbEntity
  8
0
  6
CONTINUOUS
 62
     7
100
AcDb2dPolyline
 66
     1
 10
0.0
 20
0.0
 30
0.0
  0
VERTEX
  5
806
100
AcDbEntity
  8
0
  6
CONTINUOUS
 62
     7
100
AcDbVertex
100
AcDb2dVertex
 10
1.281571
 20
5.85
 30
0.0
  0
VERTEX
  5
807
100
AcDbEntity
  8
0
  6
CONTINUOUS
 62
     7
100
AcDbVertex
100
AcDb2dVertex
 10
1.188714
 20
5.915
 30
0.0
  0
SEQEND
  5
808
100
AcDbEntity
  8
0
  6
CONTINUOUS
 62
     7
  0
POLYLINE
  5
809
100
AcDbEntity
  8
0
  6
CONTINUOUS
 62
     7
100
AcDb2dPolyline
 66
     1
 10
0.0
 20
0.0
 30
0.0
  0
VERTEX
  5
80A
100
AcDbEntity
  8
0
  6
CONTINUOUS
 62
     7
100
AcDbVertex
100
AcDb2dVertex
 10
1.424429
 20
5.98
 30
0.0
  0
VERTEX
  5
80B
100
AcDbEntity
  8
0
  6
CONTINUOUS
 62
     7
100
AcDbVertex
100
AcDb2dVertex
 10
1.253
 20
5.98
 30
0.0
  0
SEQEND
  5
80C
100
AcDbEntity
  8
0
  6
CONTINUOUS
 62
     7
  0
POLYLINE
  5
80D
100
AcDbEntity
  8
0
  6
CONTINUOUS
 62
     7
100
AcDb2dPolyline
 66
     1
 10
0.0
 20
0.0
 30
0.0
  0
VERTEX
  5
80E
100
AcDbEntity
  8
0
  6
CONTINUOUS
 62
     7
100
AcDbVertex
100
AcDb2dVertex
 10
1.424429
 20
6.12
 30
0.0
  0
VERTEX
  5
80F
100
AcDbEntity
  8
0
  6
CONTINUOUS
 62
     7
100
AcDbVertex
100
AcDb2dVertex
 10
1.253
 20
6.12
 30
0.0
  0
SEQEND
  5
810
100
AcDbEntity
  8
0
  6
CONTINUOUS
 62
     7
  0
POLYLINE
  5
811
100
AcDbEntity
  8
0
  6
CONTINUOUS
 62
     7
100
AcDb2dPolyline
 66
     1
 10
0.0
 20
0.0
 30
0.0
  0
VERTEX
  5
812
100
AcDbEntity
  8
0
  6
CONTINUOUS
 62
     7
100
AcDbVertex
100
AcDb2dVertex
 10
1.253
 20
6.12
 30
0.0
  0
VERTEX
  5
813
100
AcDbEntity
  8
0
  6
CONTINUOUS
 62
     7
100
AcDbVertex
100
AcDb2dVertex
 10
1.188714
 20
6.15
 30
0.0
  0
SEQEND
  5
814
100
AcDbEntity
  8
0
  6
CONTINUOUS
 62
     7
  0
POLYLINE
  5
815
100
AcDbEntity
  8
0
  6
CONTINUOUS
 62
     7
100
AcDb2dPolyline
 66
     1
 10
0.0
 20
0.0
 30
0.0
  0
VERTEX
  5
816
100
AcDbEntity
  8
0
  6
CONTINUOUS
 62
     7
100
AcDbVertex
100
AcDb2dVertex
 10
1.260143
 20
6.12
 30
0.0
  0
VERTEX
  5
817
100
AcDbEntity
  8
0
  6
CONTINUOUS
 62
     7
100
AcDbVertex
100
AcDb2dVertex
 10
1.188714
 20
6.09
 30
0.0
  0
SEQEND
  5
818
100
AcDbEntity
  8
0
  6
CONTINUOUS
 62
     7
  0
POLYLINE
  5
819
100
AcDbEntity
  8
0
  6
CONTINUOUS
 62
     7
100
AcDb2dPolyline
 66
     1
 10
0.0
 20
0.0
 30
0.0
  0
VERTEX
  5
81A
100
AcDbEntity
  8
0
  6
CONTINUOUS
 62
     7
100
AcDbVertex
100
AcDb2dVertex
 10
1.253
 20
5.98
 30
0.0
  0
VERTEX
  5
81B
100
AcDbEntity
  8
0
  6
CONTINUOUS
 62
     7
100
AcDbVertex
100
AcDb2dVertex
 10
1.188714
 20
6.01
 30
0.0
  0
SEQEND
  5
81C
100
AcDbEntity
  8
0
  6
CONTINUOUS
 62
     7
  0
POLYLINE
  5
81D
100
AcDbEntity
  8
0
  6
CONTINUOUS
 62
     7
100
AcDb2dPolyline
 66
     1
 10
0.0
 20
0.0
 30
0.0
  0
VERTEX
  5
81E
100
AcDbEntity
  8
0
  6
CONTINUOUS
 62
     7
100
AcDbVertex
100
AcDb2dVertex
 10
1.260143
 20
5.98
 30
0.0
  0
VERTEX
  5
81F
100
AcDbEntity
  8
0
  6
CONTINUOUS
 62
     7
100
AcDbVertex
100
AcDb2dVertex
 10
1.188714
 20
5.95
 30
0.0
  0
SEQEND
  5
820
100
AcDbEntity
  8
0
  6
CONTINUOUS
 62
     7
  0
ENDBLK
  5
822
100
AcDbEntity
  8
0
100
AcDbBlockEnd
  0
BLOCK
  5
824
100
AcDbEntity
  8
0
100
AcDbBlockBegin
  2
SHEET_129
 70
    66
 10
9.72
 20
6.1
 30
0.0
  3
SHEET_129
  1

  0
POLYLINE
  5
825
100
AcDbEntity
  8
0
  6
DASHED2
 62
     7
100
AcDb2dPolyline
 66
     1
 10
0.0
 20
0.0
 30
0.0
  0
VERTEX
  5
826
100
AcDbEntity
  8
0
  6
DASHED2
 62
     7
100
AcDbVertex
100
AcDb2dVertex
 10
9.575
 20
6.2
 30
0.0
  0
VERTEX
  5
827
100
AcDbEntity
  8
0
  6
DASHED2
 62
     7
100
AcDbVertex
100
AcDb2dVertex
 10
9.95
 20
6.2
 30
0.0
  0
SEQEND
  5
828
100
AcDbEntity
  8
0
  6
DASHED2
 62
     7
  0
POLYLINE
  5
829
100
AcDbEntity
  8
0
  6
DASHED2
 62
     7
100
AcDb2dPolyline
 66
     1
 10
0.0
 20
0.0
 30
0.0
  0
VERTEX
  5
82A
100
AcDbEntity
  8
0
  6
DASHED2
 62
     7
100
AcDbVertex
100
AcDb2dVertex
 10
9.575
 20
6.0
 30
0.0
  0
VERTEX
  5
82B
100
AcDbEntity
  8
0
  6
DASHED2
 62
     7
100
AcDbVertex
100
AcDb2dVertex
 10
9.95
 20
6.0
 30
0.0
  0
SEQEND
  5
82C
100
AcDbEntity
  8
0
  6
DASHED2
 62
     7
  0
POLYLINE
  5
82D
100
AcDbEntity
  8
0
  6
CONTINUOUS
 62
     7
100
AcDb2dPolyline
 66
     1
 10
0.0
 20
0.0
 30
0.0
  0
VERTEX
  5
82E
100
AcDbEntity
  8
0
  6
CONTINUOUS
 62
     7
100
AcDbVertex
100
AcDb2dVertex
 10
9.95
 20
6.3
 30
0.0
  0
VERTEX
  5
82F
100
AcDbEntity
  8
0
  6
CONTINUOUS
 62
     7
100
AcDbVertex
100
AcDb2dVertex
 10
9.95
 20
5.9
 30
0.0
  0
SEQEND
  5
830
100
AcDbEntity
  8
0
  6
CONTINUOUS
 62
     7
  0
POLYLINE
  5
831
100
AcDbEntity
  8
0
  6
CONTINUOUS
 62
     7
100
AcDb2dPolyline
 66
     1
 10
0.0
 20
0.0
 30
0.0
  0
VERTEX
  5
832
100
AcDbEntity
  8
0
  6
CONTINUOUS
 62
     7
100
AcDbVertex
100
AcDb2dVertex
 10
9.95
 20
6.3
 30
0.0
  0
VERTEX
  5
833
100
AcDbEntity
  8
0
  6
CONTINUOUS
 62
     7
100
AcDbVertex
100
AcDb2dVertex
 10
10.05
 20
6.3
 30
0.0
  0
SEQEND
  5
834
100
AcDbEntity
  8
0
  6
CONTINUOUS
 62
     7
  0
POLYLINE
  5
835
100
AcDbEntity
  8
0
  6
CONTINUOUS
 62
     7
100
AcDb2dPolyline
 66
     1
 10
0.0
 20
0.0
 30
0.0
  0
VERTEX
  5
836
100
AcDbEntity
  8
0
  6
CONTINUOUS
 62
     7
100
AcDbVertex
100
AcDb2dVertex
 10
10.05
 20
6.3
 30
0.0
  0
VERTEX
  5
837
100
AcDbEntity
  8
0
  6
CONTINUOUS
 62
     7
100
AcDbVertex
100
AcDb2dVertex
 10
10.115
 20
6.235
 30
0.0
  0
SEQEND
  5
838
100
AcDbEntity
  8
0
  6
CONTINUOUS
 62
     7
  0
POLYLINE
  5
839
100
AcDbEntity
  8
0
  6
CONTINUOUS
 62
     7
100
AcDb2dPolyline
 66
     1
 10
0.0
 20
0.0
 30
0.0
  0
VERTEX
  5
83A
100
AcDbEntity
  8
0
  6
CONTINUOUS
 62
     7
100
AcDbVertex
100
AcDb2dVertex
 10
10.115
 20
6.235
 30
0.0
  0
VERTEX
  5
83B
100
AcDbEntity
  8
0
  6
CONTINUOUS
 62
     7
100
AcDbVertex
100
AcDb2dVertex
 10
10.115
 20
5.965
 30
0.0
  0
SEQEND
  5
83C
100
AcDbEntity
  8
0
  6
CONTINUOUS
 62
     7
  0
POLYLINE
  5
83D
100
AcDbEntity
  8
0
  6
CONTINUOUS
 62
     7
100
AcDb2dPolyline
 66
     1
 10
0.0
 20
0.0
 30
0.0
  0
VERTEX
  5
83E
100
AcDbEntity
  8
0
  6
CONTINUOUS
 62
     7
100
AcDbVertex
100
AcDb2dVertex
 10
9.95
 20
5.9
 30
0.0
  0
VERTEX
  5
83F
100
AcDbEntity
  8
0
  6
CONTINUOUS
 62
     7
100
AcDbVertex
100
AcDb2dVertex
 10
10.05
 20
5.9
 30
0.0
  0
SEQEND
  5
840
100
AcDbEntity
  8
0
  6
CONTINUOUS
 62
     7
  0
POLYLINE
  5
841
100
AcDbEntity
  8
0
  6
CONTINUOUS
 62
     7
100
AcDb2dPolyline
 66
     1
 10
0.0
 20
0.0
 30
0.0
  0
VERTEX
  5
842
100
AcDbEntity
  8
0
  6
CONTINUOUS
 62
     7
100
AcDbVertex
100
AcDb2dVertex
 10
10.05
 20
5.9
 30
0.0
  0
VERTEX
  5
843
100
AcDbEntity
  8
0
  6
CONTINUOUS
 62
     7
100
AcDbVertex
100
AcDb2dVertex
 10
10.115
 20
5.965
 30
0.0
  0
SEQEND
  5
844
100
AcDbEntity
  8
0
  6
CONTINUOUS
 62
     7
  0
POLYLINE
  5
845
100
AcDbEntity
  8
0
  6
CONTINUOUS
 62
     7
100
AcDb2dPolyline
 66
     1
 10
0.0
 20
0.0
 30
0.0
  0
VERTEX
  5
846
100
AcDbEntity
  8
0
  6
CONTINUOUS
 62
     7
100
AcDbVertex
100
AcDb2dVertex
 10
9.95
 20
6.03
 30
0.0
  0
VERTEX
  5
847
100
AcDbEntity
  8
0
  6
CONTINUOUS
 62
     7
100
AcDbVertex
100
AcDb2dVertex
 10
10.07
 20
6.03
 30
0.0
  0
SEQEND
  5
848
100
AcDbEntity
  8
0
  6
CONTINUOUS
 62
     7
  0
POLYLINE
  5
849
100
AcDbEntity
  8
0
  6
CONTINUOUS
 62
     7
100
AcDb2dPolyline
 66
     1
 10
0.0
 20
0.0
 30
0.0
  0
VERTEX
  5
84A
100
AcDbEntity
  8
0
  6
CONTINUOUS
 62
     7
100
AcDbVertex
100
AcDb2dVertex
 10
9.95
 20
6.17
 30
0.0
  0
VERTEX
  5
84B
100
AcDbEntity
  8
0
  6
CONTINUOUS
 62
     7
100
AcDbVertex
100
AcDb2dVertex
 10
10.07
 20
6.17
 30
0.0
  0
SEQEND
  5
84C
100
AcDbEntity
  8
0
  6
CONTINUOUS
 62
     7
  0
POLYLINE
  5
84D
100
AcDbEntity
  8
0
  6
CONTINUOUS
 62
     7
100
AcDb2dPolyline
 66
     1
 10
0.0
 20
0.0
 30
0.0
  0
VERTEX
  5
84E
100
AcDbEntity
  8
0
  6
CONTINUOUS
 62
     7
100
AcDbVertex
100
AcDb2dVertex
 10
10.07
 20
6.17
 30
0.0
  0
VERTEX
  5
84F
100
AcDbEntity
  8
0
  6
CONTINUOUS
 62
     7
100
AcDbVertex
100
AcDb2dVertex
 10
10.115
 20
6.2
 30
0.0
  0
SEQEND
  5
850
100
AcDbEntity
  8
0
  6
CONTINUOUS
 62
     7
  0
POLYLINE
  5
851
100
AcDbEntity
  8
0
  6
CONTINUOUS
 62
     7
100
AcDb2dPolyline
 66
     1
 10
0.0
 20
0.0
 30
0.0
  0
VERTEX
  5
852
100
AcDbEntity
  8
0
  6
CONTINUOUS
 62
     7
100
AcDbVertex
100
AcDb2dVertex
 10
10.065
 20
6.17
 30
0.0
  0
VERTEX
  5
853
100
AcDbEntity
  8
0
  6
CONTINUOUS
 62
     7
100
AcDbVertex
100
AcDb2dVertex
 10
10.115
 20
6.14
 30
0.0
  0
SEQEND
  5
854
100
AcDbEntity
  8
0
  6
CONTINUOUS
 62
     7
  0
POLYLINE
  5
855
100
AcDbEntity
  8
0
  6
CONTINUOUS
 62
     7
100
AcDb2dPolyline
 66
     1
 10
0.0
 20
0.0
 30
0.0
  0
VERTEX
  5
856
100
AcDbEntity
  8
0
  6
CONTINUOUS
 62
     7
100
AcDbVertex
100
AcDb2dVertex
 10
10.07
 20
6.03
 30
0.0
  0
VERTEX
  5
857
100
AcDbEntity
  8
0
  6
CONTINUOUS
 62
     7
100
AcDbVertex
100
AcDb2dVertex
 10
10.115
 20
6.06
 30
0.0
  0
SEQEND
  5
858
100
AcDbEntity
  8
0
  6
CONTINUOUS
 62
     7
  0
POLYLINE
  5
859
100
AcDbEntity
  8
0
  6
CONTINUOUS
 62
     7
100
AcDb2dPolyline
 66
     1
 10
0.0
 20
0.0
 30
0.0
  0
VERTEX
  5
85A
100
AcDbEntity
  8
0
  6
CONTINUOUS
 62
     7
100
AcDbVertex
100
AcDb2dVertex
 10
10.065
 20
6.03
 30
0.0
  0
VERTEX
  5
85B
100
AcDbEntity
  8
0
  6
CONTINUOUS
 62
     7
100
AcDbVertex
100
AcDb2dVertex
 10
10.115
 20
6.0
 30
0.0
  0
SEQEND
  5
85C
100
AcDbEntity
  8
0
  6
CONTINUOUS
 62
     7
  0
POLYLINE
  5
85D
100
AcDbEntity
  8
0
  6
CONTINUOUS
 62
     7
100
AcDb2dPolyline
 66
     1
 10
0.0
 20
0.0
 30
0.0
  0
VERTEX
  5
85E
100
AcDbEntity
  8
0
  6
CONTINUOUS
 62
     7
100
AcDbVertex
100
AcDb2dVertex
 10
9.575
 20
6.3
 30
0.0
  0
VERTEX
  5
85F
100
AcDbEntity
  8
0
  6
CONTINUOUS
 62
     7
100
AcDbVertex
100
AcDb2dVertex
 10
9.575
 20
5.9
 30
0.0
  0
SEQEND
  5
860
100
AcDbEntity
  8
0
  6
CONTINUOUS
 62
     7
  0
POLYLINE
  5
861
100
AcDbEntity
  8
0
  6
CONTINUOUS
 62
     7
100
AcDb2dPolyline
 66
     1
 10
0.0
 20
0.0
 30
0.0
  0
VERTEX
  5
862
100
AcDbEntity
  8
0
  6
CONTINUOUS
 62
     7
100
AcDbVertex
100
AcDb2dVertex
 10
9.575
 20
6.3
 30
0.0
  0
VERTEX
  5
863
100
AcDbEntity
  8
0
  6
CONTINUOUS
 62
     7
100
AcDbVertex
100
AcDb2dVertex
 10
9.475
 20
6.3
 30
0.0
  0
SEQEND
  5
864
100
AcDbEntity
  8
0
  6
CONTINUOUS
 62
     7
  0
POLYLINE
  5
865
100
AcDbEntity
  8
0
  6
CONTINUOUS
 62
     7
100
AcDb2dPolyline
 66
     1
 10
0.0
 20
0.0
 30
0.0
  0
VERTEX
  5
866
100
AcDbEntity
  8
0
  6
CONTINUOUS
 62
     7
100
AcDbVertex
100
AcDb2dVertex
 10
9.475
 20
6.3
 30
0.0
  0
VERTEX
  5
867
100
AcDbEntity
  8
0
  6
CONTINUOUS
 62
     7
100
AcDbVertex
100
AcDb2dVertex
 10
9.41
 20
6.235
 30
0.0
  0
SEQEND
  5
868
100
AcDbEntity
  8
0
  6
CONTINUOUS
 62
     7
  0
POLYLINE
  5
869
100
AcDbEntity
  8
0
  6
CONTINUOUS
 62
     7
100
AcDb2dPolyline
 66
     1
 10
0.0
 20
0.0
 30
0.0
  0
VERTEX
  5
86A
100
AcDbEntity
  8
0
  6
CONTINUOUS
 62
     7
100
AcDbVertex
100
AcDb2dVertex
 10
9.41
 20
6.235
 30
0.0
  0
VERTEX
  5
86B
100
AcDbEntity
  8
0
  6
CONTINUOUS
 62
     7
100
AcDbVertex
100
AcDb2dVertex
 10
9.41
 20
5.965
 30
0.0
  0
SEQEND
  5
86C
100
AcDbEntity
  8
0
  6
CONTINUOUS
 62
     7
  0
POLYLINE
  5
86D
100
AcDbEntity
  8
0
  6
CONTINUOUS
 62
     7
100
AcDb2dPolyline
 66
     1
 10
0.0
 20
0.0
 30
0.0
  0
VERTEX
  5
86E
100
AcDbEntity
  8
0
  6
CONTINUOUS
 62
     7
100
AcDbVertex
100
AcDb2dVertex
 10
9.575
 20
5.9
 30
0.0
  0
VERTEX
  5
86F
100
AcDbEntity
  8
0
  6
CONTINUOUS
 62
     7
100
AcDbVertex
100
AcDb2dVertex
 10
9.475
 20
5.9
 30
0.0
  0
SEQEND
  5
870
100
AcDbEntity
  8
0
  6
CONTINUOUS
 62
     7
  0
POLYLINE
  5
871
100
AcDbEntity
  8
0
  6
CONTINUOUS
 62
     7
100
AcDb2dPolyline
 66
     1
 10
0.0
 20
0.0
 30
0.0
  0
VERTEX
  5
872
100
AcDbEntity
  8
0
  6
CONTINUOUS
 62
     7
100
AcDbVertex
100
AcDb2dVertex
 10
9.475
 20
5.9
 30
0.0
  0
VERTEX
  5
873
100
AcDbEntity
  8
0
  6
CONTINUOUS
 62
     7
100
AcDbVertex
100
AcDb2dVertex
 10
9.41
 20
5.965
 30
0.0
  0
SEQEND
  5
874
100
AcDbEntity
  8
0
  6
CONTINUOUS
 62
     7
  0
POLYLINE
  5
875
100
AcDbEntity
  8
0
  6
CONTINUOUS
 62
     7
100
AcDb2dPolyline
 66
     1
 10
0.0
 20
0.0
 30
0.0
  0
VERTEX
  5
876
100
AcDbEntity
  8
0
  6
CONTINUOUS
 62
     7
100
AcDbVertex
100
AcDb2dVertex
 10
9.575
 20
6.03
 30
0.0
  0
VERTEX
  5
877
100
AcDbEntity
  8
0
  6
CONTINUOUS
 62
     7
100
AcDbVertex
100
AcDb2dVertex
 10
9.455
 20
6.03
 30
0.0
  0
SEQEND
  5
878
100
AcDbEntity
  8
0
  6
CONTINUOUS
 62
     7
  0
POLYLINE
  5
879
100
AcDbEntity
  8
0
  6
CONTINUOUS
 62
     7
100
AcDb2dPolyline
 66
     1
 10
0.0
 20
0.0
 30
0.0
  0
VERTEX
  5
87A
100
AcDbEntity
  8
0
  6
CONTINUOUS
 62
     7
100
AcDbVertex
100
AcDb2dVertex
 10
9.575
 20
6.17
 30
0.0
  0
VERTEX
  5
87B
100
AcDbEntity
  8
0
  6
CONTINUOUS
 62
     7
100
AcDbVertex
100
AcDb2dVertex
 10
9.455
 20
6.17
 30
0.0
  0
SEQEND
  5
87C
100
AcDbEntity
  8
0
  6
CONTINUOUS
 62
     7
  0
POLYLINE
  5
87D
100
AcDbEntity
  8
0
  6
CONTINUOUS
 62
     7
100
AcDb2dPolyline
 66
     1
 10
0.0
 20
0.0
 30
0.0
  0
VERTEX
  5
87E
100
AcDbEntity
  8
0
  6
CONTINUOUS
 62
     7
100
AcDbVertex
100
AcDb2dVertex
 10
9.455
 20
6.17
 30
0.0
  0
VERTEX
  5
87F
100
AcDbEntity
  8
0
  6
CONTINUOUS
 62
     7
100
AcDbVertex
100
AcDb2dVertex
 10
9.41
 20
6.2
 30
0.0
  0
SEQEND
  5
880
100
AcDbEntity
  8
0
  6
CONTINUOUS
 62
     7
  0
POLYLINE
  5
881
100
AcDbEntity
  8
0
  6
CONTINUOUS
 62
     7
100
AcDb2dPolyline
 66
     1
 10
0.0
 20
0.0
 30
0.0
  0
VERTEX
  5
882
100
AcDbEntity
  8
0
  6
CONTINUOUS
 62
     7
100
AcDbVertex
100
AcDb2dVertex
 10
9.46
 20
6.17
 30
0.0
  0
VERTEX
  5
883
100
AcDbEntity
  8
0
  6
CONTINUOUS
 62
     7
100
AcDbVertex
100
AcDb2dVertex
 10
9.41
 20
6.14
 30
0.0
  0
SEQEND
  5
884
100
AcDbEntity
  8
0
  6
CONTINUOUS
 62
     7
  0
POLYLINE
  5
885
100
AcDbEntity
  8
0
  6
CONTINUOUS
 62
     7
100
AcDb2dPolyline
 66
     1
 10
0.0
 20
0.0
 30
0.0
  0
VERTEX
  5
886
100
AcDbEntity
  8
0
  6
CONTINUOUS
 62
     7
100
AcDbVertex
100
AcDb2dVertex
 10
9.455
 20
6.03
 30
0.0
  0
VERTEX
  5
887
100
AcDbEntity
  8
0
  6
CONTINUOUS
 62
     7
100
AcDbVertex
100
AcDb2dVertex
 10
9.41
 20
6.06
 30
0.0
  0
SEQEND
  5
888
100
AcDbEntity
  8
0
  6
CONTINUOUS
 62
     7
  0
POLYLINE
  5
889
100
AcDbEntity
  8
0
  6
CONTINUOUS
 62
     7
100
AcDb2dPolyline
 66
     1
 10
0.0
 20
0.0
 30
0.0
  0
VERTEX
  5
88A
100
AcDbEntity
  8
0
  6
CONTINUOUS
 62
     7
100
AcDbVertex
100
AcDb2dVertex
 10
9.46
 20
6.03
 30
0.0
  0
VERTEX
  5
88B
100
AcDbEntity
  8
0
  6
CONTINUOUS
 62
     7
100
AcDbVertex
100
AcDb2dVertex
 10
9.41
 20
6.0
 30
0.0
  0
SEQEND
  5
88C
100
AcDbEntity
  8
0
  6
CONTINUOUS
 62
     7
  0
POLYLINE
  5
88D
100
AcDbEntity
  8
0
  6
CONTINUOUS
 62
     7
100
AcDb2dPolyline
 66
     1
 10
0.0
 20
0.0
 30
0.0
  0
VERTEX
  5
88E
100
AcDbEntity
  8
0
  6
CONTINUOUS
 62
     7
100
AcDbVertex
100
AcDb2dVertex
 10
9.41
 20
6.17
 30
0.0
  0
VERTEX
  5
88F
100
AcDbEntity
  8
0
  6
CONTINUOUS
 62
     7
100
AcDbVertex
100
AcDb2dVertex
 10
9.325
 20
6.17
 30
0.0
  0
SEQEND
  5
890
100
AcDbEntity
  8
0
  6
CONTINUOUS
 62
     7
  0
POLYLINE
  5
891
100
AcDbEntity
  8
0
  6
CONTINUOUS
 62
     7
100
AcDb2dPolyline
 66
     1
 10
0.0
 20
0.0
 30
0.0
  0
VERTEX
  5
892
100
AcDbEntity
  8
0
  6
CONTINUOUS
 62
     7
100
AcDbVertex
100
AcDb2dVertex
 10
9.41
 20
6.03
 30
0.0
  0
VERTEX
  5
893
100
AcDbEntity
  8
0
  6
CONTINUOUS
 62
     7
100
AcDbVertex
100
AcDb2dVertex
 10
9.325
 20
6.03
 30
0.0
  0
VERTEX
  5
894
100
AcDbEntity
  8
0
  6
CONTINUOUS
 62
     7
100
AcDbVertex
100
AcDb2dVertex
 10
9.325
 20
6.17
 30
0.0
  0
SEQEND
  5
895
100
AcDbEntity
  8
0
  6
CONTINUOUS
 62
     7
  0
POLYLINE
  5
896
100
AcDbEntity
  8
0
  6
CONTINUOUS
 62
     7
100
AcDb2dPolyline
 66
     1
 10
0.0
 20
0.0
 30
0.0
  0
VERTEX
  5
897
100
AcDbEntity
  8
0
  6
CONTINUOUS
 62
     7
100
AcDbVertex
100
AcDb2dVertex
 10
9.405
 20
6.03
 30
0.0
  0
VERTEX
  5
898
100
AcDbEntity
  8
0
  6
CONTINUOUS
 62
     7
100
AcDbVertex
100
AcDb2dVertex
 10
9.375
 20
6.17
 30
0.0
  0
SEQEND
  5
899
100
AcDbEntity
  8
0
  6
CONTINUOUS
 62
     7
  0
POLYLINE
  5
89A
100
AcDbEntity
  8
0
  6
CONTINUOUS
 62
     7
100
AcDb2dPolyline
 66
     1
 10
0.0
 20
0.0
 30
0.0
  0
VERTEX
  5
89B
100
AcDbEntity
  8
0
  6
CONTINUOUS
 62
     7
100
AcDbVertex
100
AcDb2dVertex
 10
9.355
 20
6.03
 30
0.0
  0
VERTEX
  5
89C
100
AcDbEntity
  8
0
  6
CONTINUOUS
 62
     7
100
AcDbVertex
100
AcDb2dVertex
 10
9.325
 20
6.13
 30
0.0
  0
SEQEND
  5
89D
100
AcDbEntity
  8
0
  6
CONTINUOUS
 62
     7
  0
ENDBLK
  5
89F
100
AcDbEntity
  8
0
100
AcDbBlockEnd
  0
BLOCK
  5
8A1
100
AcDbEntity
  8
0
100
AcDbBlockBegin
  2
SHEET_88
 70
    66
 10
9.725
 20
2.45
 30
0.0
  3
SHEET_88
  1

  0
POLYLINE
  5
8A2
100
AcDbEntity
  8
0
  6
DASHED2
 62
     7
100
AcDb2dPolyline
 66
     1
 10
0.0
 20
0.0
 30
0.0
  0
VERTEX
  5
8A3
100
AcDbEntity
  8
0
  6
DASHED2
 62
     7
100
AcDbVertex
100
AcDb2dVertex
 10
9.58
 20
2.55
 30
0.0
  0
VERTEX
  5
8A4
100
AcDbEntity
  8
0
  6
DASHED2
 62
     7
100
AcDbVertex
100
AcDb2dVertex
 10
9.955
 20
2.55
 30
0.0
  0
SEQEND
  5
8A5
100
AcDbEntity
  8
0
  6
DASHED2
 62
     7
  0
POLYLINE
  5
8A6
100
AcDbEntity
  8
0
  6
DASHED2
 62
     7
100
AcDb2dPolyline
 66
     1
 10
0.0
 20
0.0
 30
0.0
  0
VERTEX
  5
8A7
100
AcDbEntity
  8
0
  6
DASHED2
 62
     7
100
AcDbVertex
100
AcDb2dVertex
 10
9.58
 20
2.35
 30
0.0
  0
VERTEX
  5
8A8
100
AcDbEntity
  8
0
  6
DASHED2
 62
     7
100
AcDbVertex
100
AcDb2dVertex
 10
9.955
 20
2.35
 30
0.0
  0
SEQEND
  5
8A9
100
AcDbEntity
  8
0
  6
DASHED2
 62
     7
  0
POLYLINE
  5
8AA
100
AcDbEntity
  8
0
  6
CONTINUOUS
 62
     7
100
AcDb2dPolyline
 66
     1
 10
0.0
 20
0.0
 30
0.0
  0
VERTEX
  5
8AB
100
AcDbEntity
  8
0
  6
CONTINUOUS
 62
     7
100
AcDbVertex
100
AcDb2dVertex
 10
9.955
 20
2.65
 30
0.0
  0
VERTEX
  5
8AC
100
AcDbEntity
  8
0
  6
CONTINUOUS
 62
     7
100
AcDbVertex
100
AcDb2dVertex
 10
9.955
 20
2.25
 30
0.0
  0
SEQEND
  5
8AD
100
AcDbEntity
  8
0
  6
CONTINUOUS
 62
     7
  0
POLYLINE
  5
8AE
100
AcDbEntity
  8
0
  6
CONTINUOUS
 62
     7
100
AcDb2dPolyline
 66
     1
 10
0.0
 20
0.0
 30
0.0
  0
VERTEX
  5
8AF
100
AcDbEntity
  8
0
  6
CONTINUOUS
 62
     7
100
AcDbVertex
100
AcDb2dVertex
 10
9.955
 20
2.65
 30
0.0
  0
VERTEX
  5
8B0
100
AcDbEntity
  8
0
  6
CONTINUOUS
 62
     7
100
AcDbVertex
100
AcDb2dVertex
 10
10.055
 20
2.65
 30
0.0
  0
SEQEND
  5
8B1
100
AcDbEntity
  8
0
  6
CONTINUOUS
 62
     7
  0
POLYLINE
  5
8B2
100
AcDbEntity
  8
0
  6
CONTINUOUS
 62
     7
100
AcDb2dPolyline
 66
     1
 10
0.0
 20
0.0
 30
0.0
  0
VERTEX
  5
8B3
100
AcDbEntity
  8
0
  6
CONTINUOUS
 62
     7
100
AcDbVertex
100
AcDb2dVertex
 10
10.055
 20
2.65
 30
0.0
  0
VERTEX
  5
8B4
100
AcDbEntity
  8
0
  6
CONTINUOUS
 62
     7
100
AcDbVertex
100
AcDb2dVertex
 10
10.12
 20
2.585
 30
0.0
  0
SEQEND
  5
8B5
100
AcDbEntity
  8
0
  6
CONTINUOUS
 62
     7
  0
POLYLINE
  5
8B6
100
AcDbEntity
  8
0
  6
CONTINUOUS
 62
     7
100
AcDb2dPolyline
 66
     1
 10
0.0
 20
0.0
 30
0.0
  0
VERTEX
  5
8B7
100
AcDbEntity
  8
0
  6
CONTINUOUS
 62
     7
100
AcDbVertex
100
AcDb2dVertex
 10
10.12
 20
2.585
 30
0.0
  0
VERTEX
  5
8B8
100
AcDbEntity
  8
0
  6
CONTINUOUS
 62
     7
100
AcDbVertex
100
AcDb2dVertex
 10
10.12
 20
2.315
 30
0.0
  0
SEQEND
  5
8B9
100
AcDbEntity
  8
0
  6
CONTINUOUS
 62
     7
  0
POLYLINE
  5
8BA
100
AcDbEntity
  8
0
  6
CONTINUOUS
 62
     7
100
AcDb2dPolyline
 66
     1
 10
0.0
 20
0.0
 30
0.0
  0
VERTEX
  5
8BB
100
AcDbEntity
  8
0
  6
CONTINUOUS
 62
     7
100
AcDbVertex
100
AcDb2dVertex
 10
9.955
 20
2.25
 30
0.0
  0
VERTEX
  5
8BC
100
AcDbEntity
  8
0
  6
CONTINUOUS
 62
     7
100
AcDbVertex
100
AcDb2dVertex
 10
10.055
 20
2.25
 30
0.0
  0
SEQEND
  5
8BD
100
AcDbEntity
  8
0
  6
CONTINUOUS
 62
     7
  0
POLYLINE
  5
8BE
100
AcDbEntity
  8
0
  6
CONTINUOUS
 62
     7
100
AcDb2dPolyline
 66
     1
 10
0.0
 20
0.0
 30
0.0
  0
VERTEX
  5
8BF
100
AcDbEntity
  8
0
  6
CONTINUOUS
 62
     7
100
AcDbVertex
100
AcDb2dVertex
 10
10.055
 20
2.25
 30
0.0
  0
VERTEX
  5
8C0
100
AcDbEntity
  8
0
  6
CONTINUOUS
 62
     7
100
AcDbVertex
100
AcDb2dVertex
 10
10.12
 20
2.315
 30
0.0
  0
SEQEND
  5
8C1
100
AcDbEntity
  8
0
  6
CONTINUOUS
 62
     7
  0
POLYLINE
  5
8C2
100
AcDbEntity
  8
0
  6
CONTINUOUS
 62
     7
100
AcDb2dPolyline
 66
     1
 10
0.0
 20
0.0
 30
0.0
  0
VERTEX
  5
8C3
100
AcDbEntity
  8
0
  6
CONTINUOUS
 62
     7
100
AcDbVertex
100
AcDb2dVertex
 10
9.955
 20
2.38
 30
0.0
  0
VERTEX
  5
8C4
100
AcDbEntity
  8
0
  6
CONTINUOUS
 62
     7
100
AcDbVertex
100
AcDb2dVertex
 10
10.075
 20
2.38
 30
0.0
  0
SEQEND
  5
8C5
100
AcDbEntity
  8
0
  6
CONTINUOUS
 62
     7
  0
POLYLINE
  5
8C6
100
AcDbEntity
  8
0
  6
CONTINUOUS
 62
     7
100
AcDb2dPolyline
 66
     1
 10
0.0
 20
0.0
 30
0.0
  0
VERTEX
  5
8C7
100
AcDbEntity
  8
0
  6
CONTINUOUS
 62
     7
100
AcDbVertex
100
AcDb2dVertex
 10
9.955
 20
2.52
 30
0.0
  0
VERTEX
  5
8C8
100
AcDbEntity
  8
0
  6
CONTINUOUS
 62
     7
100
AcDbVertex
100
AcDb2dVertex
 10
10.075
 20
2.52
 30
0.0
  0
SEQEND
  5
8C9
100
AcDbEntity
  8
0
  6
CONTINUOUS
 62
     7
  0
POLYLINE
  5
8CA
100
AcDbEntity
  8
0
  6
CONTINUOUS
 62
     7
100
AcDb2dPolyline
 66
     1
 10
0.0
 20
0.0
 30
0.0
  0
VERTEX
  5
8CB
100
AcDbEntity
  8
0
  6
CONTINUOUS
 62
     7
100
AcDbVertex
100
AcDb2dVertex
 10
10.075
 20
2.52
 30
0.0
  0
VERTEX
  5
8CC
100
AcDbEntity
  8
0
  6
CONTINUOUS
 62
     7
100
AcDbVertex
100
AcDb2dVertex
 10
10.12
 20
2.55
 30
0.0
  0
SEQEND
  5
8CD
100
AcDbEntity
  8
0
  6
CONTINUOUS
 62
     7
  0
POLYLINE
  5
8CE
100
AcDbEntity
  8
0
  6
CONTINUOUS
 62
     7
100
AcDb2dPolyline
 66
     1
 10
0.0
 20
0.0
 30
0.0
  0
VERTEX
  5
8CF
100
AcDbEntity
  8
0
  6
CONTINUOUS
 62
     7
100
AcDbVertex
100
AcDb2dVertex
 10
10.07
 20
2.52
 30
0.0
  0
VERTEX
  5
8D0
100
AcDbEntity
  8
0
  6
CONTINUOUS
 62
     7
100
AcDbVertex
100
AcDb2dVertex
 10
10.12
 20
2.49
 30
0.0
  0
SEQEND
  5
8D1
100
AcDbEntity
  8
0
  6
CONTINUOUS
 62
     7
  0
POLYLINE
  5
8D2
100
AcDbEntity
  8
0
  6
CONTINUOUS
 62
     7
100
AcDb2dPolyline
 66
     1
 10
0.0
 20
0.0
 30
0.0
  0
VERTEX
  5
8D3
100
AcDbEntity
  8
0
  6
CONTINUOUS
 62
     7
100
AcDbVertex
100
AcDb2dVertex
 10
10.075
 20
2.38
 30
0.0
  0
VERTEX
  5
8D4
100
AcDbEntity
  8
0
  6
CONTINUOUS
 62
     7
100
AcDbVertex
100
AcDb2dVertex
 10
10.12
 20
2.41
 30
0.0
  0
SEQEND
  5
8D5
100
AcDbEntity
  8
0
  6
CONTINUOUS
 62
     7
  0
POLYLINE
  5
8D6
100
AcDbEntity
  8
0
  6
CONTINUOUS
 62
     7
100
AcDb2dPolyline
 66
     1
 10
0.0
 20
0.0
 30
0.0
  0
VERTEX
  5
8D7
100
AcDbEntity
  8
0
  6
CONTINUOUS
 62
     7
100
AcDbVertex
100
AcDb2dVertex
 10
10.07
 20
2.38
 30
0.0
  0
VERTEX
  5
8D8
100
AcDbEntity
  8
0
  6
CONTINUOUS
 62
     7
100
AcDbVertex
100
AcDb2dVertex
 10
10.12
 20
2.35
 30
0.0
  0
SEQEND
  5
8D9
100
AcDbEntity
  8
0
  6
CONTINUOUS
 62
     7
  0
POLYLINE
  5
8DA
100
AcDbEntity
  8
0
  6
CONTINUOUS
 62
     7
100
AcDb2dPolyline
 66
     1
 10
0.0
 20
0.0
 30
0.0
  0
VERTEX
  5
8DB
100
AcDbEntity
  8
0
  6
CONTINUOUS
 62
     7
100
AcDbVertex
100
AcDb2dVertex
 10
9.58
 20
2.65
 30
0.0
  0
VERTEX
  5
8DC
100
AcDbEntity
  8
0
  6
CONTINUOUS
 62
     7
100
AcDbVertex
100
AcDb2dVertex
 10
9.58
 20
2.25
 30
0.0
  0
SEQEND
  5
8DD
100
AcDbEntity
  8
0
  6
CONTINUOUS
 62
     7
  0
POLYLINE
  5
8DE
100
AcDbEntity
  8
0
  6
CONTINUOUS
 62
     7
100
AcDb2dPolyline
 66
     1
 10
0.0
 20
0.0
 30
0.0
  0
VERTEX
  5
8DF
100
AcDbEntity
  8
0
  6
CONTINUOUS
 62
     7
100
AcDbVertex
100
AcDb2dVertex
 10
9.58
 20
2.65
 30
0.0
  0
VERTEX
  5
8E0
100
AcDbEntity
  8
0
  6
CONTINUOUS
 62
     7
100
AcDbVertex
100
AcDb2dVertex
 10
9.48
 20
2.65
 30
0.0
  0
SEQEND
  5
8E1
100
AcDbEntity
  8
0
  6
CONTINUOUS
 62
     7
  0
POLYLINE
  5
8E2
100
AcDbEntity
  8
0
  6
CONTINUOUS
 62
     7
100
AcDb2dPolyline
 66
     1
 10
0.0
 20
0.0
 30
0.0
  0
VERTEX
  5
8E3
100
AcDbEntity
  8
0
  6
CONTINUOUS
 62
     7
100
AcDbVertex
100
AcDb2dVertex
 10
9.48
 20
2.65
 30
0.0
  0
VERTEX
  5
8E4
100
AcDbEntity
  8
0
  6
CONTINUOUS
 62
     7
100
AcDbVertex
100
AcDb2dVertex
 10
9.415
 20
2.585
 30
0.0
  0
SEQEND
  5
8E5
100
AcDbEntity
  8
0
  6
CONTINUOUS
 62
     7
  0
POLYLINE
  5
8E6
100
AcDbEntity
  8
0
  6
CONTINUOUS
 62
     7
100
AcDb2dPolyline
 66
     1
 10
0.0
 20
0.0
 30
0.0
  0
VERTEX
  5
8E7
100
AcDbEntity
  8
0
  6
CONTINUOUS
 62
     7
100
AcDbVertex
100
AcDb2dVertex
 10
9.415
 20
2.585
 30
0.0
  0
VERTEX
  5
8E8
100
AcDbEntity
  8
0
  6
CONTINUOUS
 62
     7
100
AcDbVertex
100
AcDb2dVertex
 10
9.415
 20
2.315
 30
0.0
  0
SEQEND
  5
8E9
100
AcDbEntity
  8
0
  6
CONTINUOUS
 62
     7
  0
POLYLINE
  5
8EA
100
AcDbEntity
  8
0
  6
CONTINUOUS
 62
     7
100
AcDb2dPolyline
 66
     1
 10
0.0
 20
0.0
 30
0.0
  0
VERTEX
  5
8EB
100
AcDbEntity
  8
0
  6
CONTINUOUS
 62
     7
100
AcDbVertex
100
AcDb2dVertex
 10
9.58
 20
2.25
 30
0.0
  0
VERTEX
  5
8EC
100
AcDbEntity
  8
0
  6
CONTINUOUS
 62
     7
100
AcDbVertex
100
AcDb2dVertex
 10
9.48
 20
2.25
 30
0.0
  0
SEQEND
  5
8ED
100
AcDbEntity
  8
0
  6
CONTINUOUS
 62
     7
  0
POLYLINE
  5
8EE
100
AcDbEntity
  8
0
  6
CONTINUOUS
 62
     7
100
AcDb2dPolyline
 66
     1
 10
0.0
 20
0.0
 30
0.0
  0
VERTEX
  5
8EF
100
AcDbEntity
  8
0
  6
CONTINUOUS
 62
     7
100
AcDbVertex
100
AcDb2dVertex
 10
9.48
 20
2.25
 30
0.0
  0
VERTEX
  5
8F0
100
AcDbEntity
  8
0
  6
CONTINUOUS
 62
     7
100
AcDbVertex
100
AcDb2dVertex
 10
9.415
 20
2.315
 30
0.0
  0
SEQEND
  5
8F1
100
AcDbEntity
  8
0
  6
CONTINUOUS
 62
     7
  0
POLYLINE
  5
8F2
100
AcDbEntity
  8
0
  6
CONTINUOUS
 62
     7
100
AcDb2dPolyline
 66
     1
 10
0.0
 20
0.0
 30
0.0
  0
VERTEX
  5
8F3
100
AcDbEntity
  8
0
  6
CONTINUOUS
 62
     7
100
AcDbVertex
100
AcDb2dVertex
 10
9.58
 20
2.38
 30
0.0
  0
VERTEX
  5
8F4
100
AcDbEntity
  8
0
  6
CONTINUOUS
 62
     7
100
AcDbVertex
100
AcDb2dVertex
 10
9.46
 20
2.38
 30
0.0
  0
SEQEND
  5
8F5
100
AcDbEntity
  8
0
  6
CONTINUOUS
 62
     7
  0
POLYLINE
  5
8F6
100
AcDbEntity
  8
0
  6
CONTINUOUS
 62
     7
100
AcDb2dPolyline
 66
     1
 10
0.0
 20
0.0
 30
0.0
  0
VERTEX
  5
8F7
100
AcDbEntity
  8
0
  6
CONTINUOUS
 62
     7
100
AcDbVertex
100
AcDb2dVertex
 10
9.58
 20
2.52
 30
0.0
  0
VERTEX
  5
8F8
100
AcDbEntity
  8
0
  6
CONTINUOUS
 62
     7
100
AcDbVertex
100
AcDb2dVertex
 10
9.46
 20
2.52
 30
0.0
  0
SEQEND
  5
8F9
100
AcDbEntity
  8
0
  6
CONTINUOUS
 62
     7
  0
POLYLINE
  5
8FA
100
AcDbEntity
  8
0
  6
CONTINUOUS
 62
     7
100
AcDb2dPolyline
 66
     1
 10
0.0
 20
0.0
 30
0.0
  0
VERTEX
  5
8FB
100
AcDbEntity
  8
0
  6
CONTINUOUS
 62
     7
100
AcDbVertex
100
AcDb2dVertex
 10
9.46
 20
2.52
 30
0.0
  0
VERTEX
  5
8FC
100
AcDbEntity
  8
0
  6
CONTINUOUS
 62
     7
100
AcDbVertex
100
AcDb2dVertex
 10
9.415
 20
2.55
 30
0.0
  0
SEQEND
  5
8FD
100
AcDbEntity
  8
0
  6
CONTINUOUS
 62
     7
  0
POLYLINE
  5
8FE
100
AcDbEntity
  8
0
  6
CONTINUOUS
 62
     7
100
AcDb2dPolyline
 66
     1
 10
0.0
 20
0.0
 30
0.0
  0
VERTEX
  5
8FF
100
AcDbEntity
  8
0
  6
CONTINUOUS
 62
     7
100
AcDbVertex
100
AcDb2dVertex
 10
9.465
 20
2.52
 30
0.0
  0
VERTEX
  5
900
100
AcDbEntity
  8
0
  6
CONTINUOUS
 62
     7
100
AcDbVertex
100
AcDb2dVertex
 10
9.415
 20
2.49
 30
0.0
  0
SEQEND
  5
901
100
AcDbEntity
  8
0
  6
CONTINUOUS
 62
     7
  0
POLYLINE
  5
902
100
AcDbEntity
  8
0
  6
CONTINUOUS
 62
     7
100
AcDb2dPolyline
 66
     1
 10
0.0
 20
0.0
 30
0.0
  0
VERTEX
  5
903
100
AcDbEntity
  8
0
  6
CONTINUOUS
 62
     7
100
AcDbVertex
100
AcDb2dVertex
 10
9.46
 20
2.38
 30
0.0
  0
VERTEX
  5
904
100
AcDbEntity
  8
0
  6
CONTINUOUS
 62
     7
100
AcDbVertex
100
AcDb2dVertex
 10
9.415
 20
2.41
 30
0.0
  0
SEQEND
  5
905
100
AcDbEntity
  8
0
  6
CONTINUOUS
 62
     7
  0
POLYLINE
  5
906
100
AcDbEntity
  8
0
  6
CONTINUOUS
 62
     7
100
AcDb2dPolyline
 66
     1
 10
0.0
 20
0.0
 30
0.0
  0
VERTEX
  5
907
100
AcDbEntity
  8
0
  6
CONTINUOUS
 62
     7
100
AcDbVertex
100
AcDb2dVertex
 10
9.465
 20
2.38
 30
0.0
  0
VERTEX
  5
908
100
AcDbEntity
  8
0
  6
CONTINUOUS
 62
     7
100
AcDbVertex
100
AcDb2dVertex
 10
9.415
 20
2.35
 30
0.0
  0
SEQEND
  5
909
100
AcDbEntity
  8
0
  6
CONTINUOUS
 62
     7
  0
POLYLINE
  5
90A
100
AcDbEntity
  8
0
  6
CONTINUOUS
 62
     7
100
AcDb2dPolyline
 66
     1
 10
0.0
 20
0.0
 30
0.0
  0
VERTEX
  5
90B
100
AcDbEntity
  8
0
  6
CONTINUOUS
 62
     7
100
AcDbVertex
100
AcDb2dVertex
 10
9.415
 20
2.52
 30
0.0
  0
VERTEX
  5
90C
100
AcDbEntity
  8
0
  6
CONTINUOUS
 62
     7
100
AcDbVertex
100
AcDb2dVertex
 10
9.33
 20
2.52
 30
0.0
  0
SEQEND
  5
90D
100
AcDbEntity
  8
0
  6
CONTINUOUS
 62
     7
  0
POLYLINE
  5
90E
100
AcDbEntity
  8
0
  6
CONTINUOUS
 62
     7
100
AcDb2dPolyline
 66
     1
 10
0.0
 20
0.0
 30
0.0
  0
VERTEX
  5
90F
100
AcDbEntity
  8
0
  6
CONTINUOUS
 62
     7
100
AcDbVertex
100
AcDb2dVertex
 10
9.415
 20
2.38
 30
0.0
  0
VERTEX
  5
910
100
AcDbEntity
  8
0
  6
CONTINUOUS
 62
     7
100
AcDbVertex
100
AcDb2dVertex
 10
9.33
 20
2.38
 30
0.0
  0
VERTEX
  5
911
100
AcDbEntity
  8
0
  6
CONTINUOUS
 62
     7
100
AcDbVertex
100
AcDb2dVertex
 10
9.33
 20
2.52
 30
0.0
  0
SEQEND
  5
912
100
AcDbEntity
  8
0
  6
CONTINUOUS
 62
     7
  0
POLYLINE
  5
913
100
AcDbEntity
  8
0
  6
CONTINUOUS
 62
     7
100
AcDb2dPolyline
 66
     1
 10
0.0
 20
0.0
 30
0.0
  0
VERTEX
  5
914
100
AcDbEntity
  8
0
  6
CONTINUOUS
 62
     7
100
AcDbVertex
100
AcDb2dVertex
 10
9.41
 20
2.38
 30
0.0
  0
VERTEX
  5
915
100
AcDbEntity
  8
0
  6
CONTINUOUS
 62
     7
100
AcDbVertex
100
AcDb2dVertex
 10
9.38
 20
2.52
 30
0.0
  0
SEQEND
  5
916
100
AcDbEntity
  8
0
  6
CONTINUOUS
 62
     7
  0
POLYLINE
  5
917
100
AcDbEntity
  8
0
  6
CONTINUOUS
 62
     7
100
AcDb2dPolyline
 66
     1
 10
0.0
 20
0.0
 30
0.0
  0
VERTEX
  5
918
100
AcDbEntity
  8
0
  6
CONTINUOUS
 62
     7
100
AcDbVertex
100
AcDb2dVertex
 10
9.36
 20
2.38
 30
0.0
  0
VERTEX
  5
919
100
AcDbEntity
  8
0
  6
CONTINUOUS
 62
     7
100
AcDbVertex
100
AcDb2dVertex
 10
9.33
 20
2.48
 30
0.0
  0
SEQEND
  5
91A
100
AcDbEntity
  8
0
  6
CONTINUOUS
 62
     7
  0
ENDBLK
  5
91C
100
AcDbEntity
  8
0
100
AcDbBlockEnd
  0
BLOCK
  5
930
100
AcDbEntity
  8
0
100
AcDbBlockBegin
  2
VERTICAL_126
 70
    66
 10
1.7485
 20
5.06
 30
0.0
  3
VERTICAL_126
  1

  0
ATTDEF
  5
931
100
AcDbEntity
  8
DIMENSIONS
100
AcDbText
 10
1.7485
 20
5.81
 30
0.0
 40
0.25
  1
User.LPrecVal
100
AcDbAttributeDefinition
  3
Choose the displayed precision for the dimension.
  2
PRECISION
 70
     1
  0
ATTDEF
  5
932
100
AcDbEntity
  8
DIMENSIONS
100
AcDbText
 10
1.7485
 20
5.435
 30
0.0
 40
0.25
  1
User.LUnitsVal
100
AcDbAttributeDefinition
  3
Choose the units for the dimension.
  2
UNITS
 70
     1
  0
ATTDEF
  5
933
100
AcDbEntity
  8
DIMENSIONS
100
AcDbText
 10
1.7485
 20
5.06
 30
0.0
 40
0.25
  1
User.ShowUnitsVal
100
AcDbAttributeDefinition
  3
Choose whether or not to display unit abbreviations.
  2
UNITSDISPLAY
 70
     1
  0
ATTDEF
  5
934
100
AcDbEntity
  8
DIMENSIONS
100
AcDbText
 10
1.7485
 20
4.685
 30
0.0
 40
0.25
  1
Both
100
AcDbAttributeDefinition
  3
Choose which extension lines are visible.
  2
EXTENSIONLINES
 70
     1
  0
ATTDEF
  5
935
100
AcDbEntity
  8
DIMENSIONS
100
AcDbText
 10
1.7485
 20
4.31
 30
0.0
 40
0.25
  1
90 deg.
100
AcDbAttributeDefinition
  3
Choose the angle at which the dimension line is rotated.
  2
ANGLE
 70
     1
  0
POLYLINE
  5
936
100
AcDbEntity
  8
DIMENSIONS
  6
CONTINUOUS
 62
     7
100
AcDb2dPolyline
 66
     1
 10
0.0
 20
0.0
 30
0.0
 70
     1
  0
VERTEX
  5
937
100
AcDbEntity
  8
DIMENSIONS
  6
CONTINUOUS
 62
     7
100
AcDbVertex
100
AcDb2dVertex
 10
0.788889
 20
5.06
 30
0.0
  0
VERTEX
  5
938
100
AcDbEntity
  8
DIMENSIONS
  6
CONTINUOUS
 62
     7
100
AcDbVertex
100
AcDb2dVertex
 10
1.692944
 20
5.06
 30
0.0
  0
SEQEND
  5
939
100
AcDbEntity
  8
DIMENSIONS
  6
CONTINUOUS
 62
     7
  0
POLYLINE
  5
93A
100
AcDbEntity
  8
DIMENSIONS
  6
CONTINUOUS
 62
     7
100
AcDb2dPolyline
 66
     1
 10
0.0
 20
0.0
 30
0.0
 70
     1
  0
VERTEX
  5
93B
100
AcDbEntity
  8
DIMENSIONS
  6
CONTINUOUS
 62
     7
100
AcDbVertex
100
AcDb2dVertex
 10
0.788889
 20
5.310779
 30
0.0
  0
VERTEX
  5
93C
100
AcDbEntity
  8
DIMENSIONS
  6
CONTINUOUS
 62
     7
100
AcDbVertex
100
AcDb2dVertex
 10
1.691944
 20
5.310779
 30
0.0
  0
SEQEND
  5
93D
100
AcDbEntity
  8
DIMENSIONS
  6
CONTINUOUS
 62
     7
  0
SOLID
  5
93E
100
AcDbEntity
  8
DIMENSIONS
100
AcDbTrace
 10
0.9
 20
5.06
 30
0.0
 11
0.928333
 21
4.975
 31
0.0
 12
0.871667
 22
4.975
 32
0.0
 13
0.871667
 23
4.975
 33
0.0
  0
POLYLINE
  5
93F
100
AcDbEntity
  8
DIMENSIONS
  6
CONTINUOUS
 62
     7
100
AcDb2dPolyline
 66
     1
 10
0.0
 20
0.0
 30
0.0
  0
VERTEX
  5
940
100
AcDbEntity
  8
DIMENSIONS
  6
CONTINUOUS
 62
     7
100
AcDbVertex
100
AcDb2dVertex
 10
0.9
 20
4.8934
 30
0.0
  0
VERTEX
  5
941
100
AcDbEntity
  8
DIMENSIONS
  6
CONTINUOUS
 62
     7
100
AcDbVertex
100
AcDb2dVertex
 10
0.9
 20
5.06
 30
0.0
  0
SEQEND
  5
942
100
AcDbEntity
  8
DIMENSIONS
  6
CONTINUOUS
 62
     7
  0
SOLID
  5
943
100
AcDbEntity
  8
DIMENSIONS
100
AcDbTrace
 10
0.9
 20
5.310779
 30
0.0
 11
0.871667
 21
5.395779
 31
0.0
 12
0.928333
 22
5.395779
 32
0.0
 13
0.928333
 23
5.395779
 33
0.0
  0
POLYLINE
  5
944
100
AcDbEntity
  8
DIMENSIONS
  6
CONTINUOUS
 62
     7
100
AcDb2dPolyline
 66
     1
 10
0.0
 20
0.0
 30
0.0
  0
VERTEX
  5
945
100
AcDbEntity
  8
DIMENSIONS
  6
CONTINUOUS
 62
     7
100
AcDbVertex
100
AcDb2dVertex
 10
0.9
 20
5.477379
 30
0.0
  0
VERTEX
  5
946
100
AcDbEntity
  8
DIMENSIONS
  6
CONTINUOUS
 62
     7
100
AcDbVertex
100
AcDb2dVertex
 10
0.9
 20
5.310779
 30
0.0
  0
SEQEND
  5
947
100
AcDbEntity
  8
DIMENSIONS
  6
CONTINUOUS
 62
     7
  0
TEXT
  5
948
100
AcDbEntity
  8
DIMENSIONS
 62
     7
100
AcDbText
 10
0.731019
 20
5.143723
 30
0.0
 40
0.111111
  1
0.25
  7
_DIMENSION
 72
     1
 11
0.9
 21
5.18539
 31
0.0
100
AcDbText
 73
     2
  0
ENDBLK
  5
94A
100
AcDbEntity
  8
0
100
AcDbBlockEnd
  0
BLOCK
  5
962
100
AcDbEntity
  8
0
100
AcDbBlockBegin
  2
BOX_CALLOUT_132
 70
    66
 10
3.65
 20
3.775
 30
0.0
  3
BOX_CALLOUT_132
  1

  0
POLYLINE
  5
963
100
AcDbEntity
  8
DIMENSIONS
  6
CONTINUOUS
 62
     7
100
AcDb2dPolyline
 66
     1
 10
0.0
 20
0.0
 30
0.0
  0
VERTEX
  5
964
100
AcDbEntity
  8
DIMENSIONS
  6
CONTINUOUS
 62
     7
100
AcDbVertex
100
AcDb2dVertex
 10
3.45
 20
3.85
 30
0.0
  0
VERTEX
  5
965
100
AcDbEntity
  8
DIMENSIONS
  6
CONTINUOUS
 62
     7
100
AcDbVertex
100
AcDb2dVertex
 10
3.534333
 20
3.834667
 30
0.0
  0
SEQEND
  5
966
100
AcDbEntity
  8
DIMENSIONS
  6
CONTINUOUS
 62
     7
  0
POLYLINE
  5
967
100
AcDbEntity
  8
DIMENSIONS
  6
CONTINUOUS
 62
     7
100
AcDb2dPolyline
 66
     1
 10
0.0
 20
0.0
 30
0.0
  0
VERTEX
  5
968
100
AcDbEntity
  8
DIMENSIONS
  6
CONTINUOUS
 62
     7
100
AcDbVertex
100
AcDb2dVertex
 10
3.85
 20
3.7
 30
0.0
  0
VERTEX
  5
969
100
AcDbEntity
  8
DIMENSIONS
  6
CONTINUOUS
 62
     7
100
AcDbVertex
100
AcDb2dVertex
 10
3.65
 20
3.7
 30
0.0
  0
VERTEX
  5
96A
100
AcDbEntity
  8
DIMENSIONS
  6
CONTINUOUS
 62
     7
100
AcDbVertex
100
AcDb2dVertex
 10
3.45
 20
3.85
 30
0.0
  0
SEQEND
  5
96B
100
AcDbEntity
  8
DIMENSIONS
  6
CONTINUOUS
 62
     7
  0
POLYLINE
  5
96C
100
AcDbEntity
  8
DIMENSIONS
  6
CONTINUOUS
 62
     7
100
AcDb2dPolyline
 66
     1
 10
0.0
 20
0.0
 30
0.0
 70
     1
  0
VERTEX
  5
96D
100
AcDbEntity
  8
DIMENSIONS
  6
CONTINUOUS
 62
     7
100
AcDbVertex
100
AcDb2dVertex
 10
3.85
 20
3.488889
 30
0.0
  0
VERTEX
  5
96E
100
AcDbEntity
  8
DIMENSIONS
  6
CONTINUOUS
 62
     7
100
AcDbVertex
100
AcDb2dVertex
 10
3.85
 20
3.911111
 30
0.0
  0
VERTEX
  5
96F
100
AcDbEntity
  8
DIMENSIONS
  6
CONTINUOUS
 62
     7
100
AcDbVertex
100
AcDb2dVertex
 10
4.523123
 20
3.911111
 30
0.0
  0
VERTEX
  5
970
100
AcDbEntity
  8
DIMENSIONS
  6
CONTINUOUS
 62
     7
100
AcDbVertex
100
AcDb2dVertex
 10
4.523123
 20
3.488889
 30
0.0
  0
SEQEND
  5
971
100
AcDbEntity
  8
DIMENSIONS
  6
CONTINUOUS
 62
     7
  0
TEXT
  5
972
100
AcDbEntity
  8
DIMENSIONS
 62
     7
100
AcDbText
 10
3.720705
 20
3.843519
 30
0.0
 40
0.111111
  1
Pre-ignition
  7
_GDT_CALLOUT
 72
     1
 11
4.186561
 21
3.885185
 31
0.0
100
AcDbText
 73
     2
  0
TEXT
  5
973
100
AcDbEntity
  8
DIMENSIONS
 62
     7
100
AcDbText
 10
4.056932
 20
3.658333
 30
0.0
 40
0.111111
  1
fuel
  7
_GDT_CALLOUT
 72
     1
 11
4.186561
 21
3.7
 31
0.0
100
AcDbText
 73
     2
  0
TEXT
  5
974
100
AcDbEntity
  8
DIMENSIONS
 62
     7
100
AcDbText
 10
4.04883
 20
3.473148
 30
0.0
 40
0.111111
  1
ring
  7
_GDT_CALLOUT
 72
     1
 11
4.186561
 21
3.514815
 31
0.0
100
AcDbText
 73
     2
  0
ENDBLK
  5
976
100
AcDbEntity
  8
0
100
AcDbBlockEnd
  0
ENDSEC
  0
SECTION
  2
ENTITIES
  0
SOLID
  5
2D
100
AcDbEntity
  8
0
 62
   253
100
AcDbTrace
 10
9.7625
 20
2.1
 30
0.0
 11
9.7625
 21
3.1
 31
0.0
 12
9.575
 22
3.1
 32
0.0
 13
9.575
 23
3.1
 33
0.0
  0
SOLID
  5
2E
100
AcDbEntity
  8
0
 62
   253
100
AcDbTrace
 10
9.7625
 20
2.1
 30
0.0
 11
9.575
 21
3.1
 31
0.0
 12
9.575
 22
2.1
 32
0.0
 13
9.575
 23
2.1
 33
0.0
  0
POLYLINE
  5
2F
100
AcDbEntity
  8
0
  6
CONTINUOUS
 62
     7
100
AcDb2dPolyline
 66
     1
 10
0.0
 20
0.0
 30
0.0
 70
     1
  0
VERTEX
  5
30
100
AcDbEntity
  8
0
  6
CONTINUOUS
 62
     7
100
AcDbVertex
100
AcDb2dVertex
 10
9.575
 20
2.1
 30
0.0
  0
VERTEX
  5
31
100
AcDbEntity
  8
0
  6
CONTINUOUS
 62
     7
100
AcDbVertex
100
AcDb2dVertex
 10
9.7625
 20
2.1
 30
0.0
  0
VERTEX
  5
32
100
AcDbEntity
  8
0
  6
CONTINUOUS
 62
     7
100
AcDbVertex
100
AcDb2dVertex
 10
9.7625
 20
3.1
 30
0.0
  0
VERTEX
  5
33
100
AcDbEntity
  8
0
  6
CONTINUOUS
 62
     7
100
AcDbVertex
100
AcDb2dVertex
 10
9.575
 20
3.1
 30
0.0
  0
SEQEND
  5
34
100
AcDbEntity
  8
0
  6
CONTINUOUS
 62
     7
  0
SOLID
  5
35
100
AcDbEntity
  8
0
 62
     7
100
AcDbTrace
 10
3.275
 20
3.24
 30
0.0
 11
3.275
 21
3.49
 31
0.0
 12
1.765
 22
3.49
 32
0.0
 13
1.765
 23
3.49
 33
0.0
  0
SOLID
  5
36
100
AcDbEntity
  8
0
 62
     7
100
AcDbTrace
 10
3.275
 20
3.24
 30
0.0
 11
1.765
 21
3.49
 31
0.0
 12
1.765
 22
3.24
 32
0.0
 13
1.765
 23
3.24
 33
0.0
  0
POLYLINE
  5
37
100
AcDbEntity
  8
0
  6
CONTINUOUS
 62
     7
100
AcDb2dPolyline
 66
     1
 10
0.0
 20
0.0
 30
0.0
 70
     1
  0
VERTEX
  5
38
100
AcDbEntity
  8
0
  6
CONTINUOUS
 62
     7
100
AcDbVertex
100
AcDb2dVertex
 10
1.765
 20
3.24
 30
0.0
  0
VERTEX
  5
39
100
AcDbEntity
  8
0
  6
CONTINUOUS
 62
     7
100
AcDbVertex
100
AcDb2dVertex
 10
3.275
 20
3.24
 30
0.0
  0
VERTEX
  5
3A
100
AcDbEntity
  8
0
  6
CONTINUOUS
 62
     7
100
AcDbVertex
100
AcDb2dVertex
 10
3.275
 20
3.49
 30
0.0
  0
VERTEX
  5
3B
100
AcDbEntity
  8
0
  6
CONTINUOUS
 62
     7
100
AcDbVertex
100
AcDb2dVertex
 10
1.765
 20
3.49
 30
0.0
  0
SEQEND
  5
3C
100
AcDbEntity
  8
0
  6
CONTINUOUS
 62
     7
  0
SOLID
  5
3D
100
AcDbEntity
  8
0
 62
     7
100
AcDbTrace
 10
3.275
 20
5.07
 30
0.0
 11
3.275
 21
5.32
 31
0.0
 12
1.765
 22
5.32
 32
0.0
 13
1.765
 23
5.32
 33
0.0
  0
SOLID
  5
3E
100
AcDbEntity
  8
0
 62
     7
100
AcDbTrace
 10
3.275
 20
5.07
 30
0.0
 11
1.765
 21
5.32
 31
0.0
 12
1.765
 22
5.07
 32
0.0
 13
1.765
 23
5.07
 33
0.0
  0
POLYLINE
  5
3F
100
AcDbEntity
  8
0
  6
CONTINUOUS
 62
     7
100
AcDb2dPolyline
 66
     1
 10
0.0
 20
0.0
 30
0.0
 70
     1
  0
VERTEX
  5
40
100
AcDbEntity
  8
0
  6
CONTINUOUS
 62
     7
100
AcDbVertex
100
AcDb2dVertex
 10
1.765
 20
5.07
 30
0.0
  0
VERTEX
  5
41
100
AcDbEntity
  8
0
  6
CONTINUOUS
 62
     7
100
AcDbVertex
100
AcDb2dVertex
 10
3.275
 20
5.07
 30
0.0
  0
VERTEX
  5
42
100
AcDbEntity
  8
0
  6
CONTINUOUS
 62
     7
100
AcDbVertex
100
AcDb2dVertex
 10
3.275
 20
5.32
 30
0.0
  0
VERTEX
  5
43
100
AcDbEntity
  8
0
  6
CONTINUOUS
 62
     7
100
AcDbVertex
100
AcDb2dVertex
 10
1.765
 20
5.32
 30
0.0
  0
SEQEND
  5
44
100
AcDbEntity
  8
0
  6
CONTINUOUS
 62
     7
  0
SOLID
  5
45
100
AcDbEntity
  8
0
 62
   253
100
AcDbTrace
 10
1.95
 20
2.1
 30
0.0
 11
1.95
 21
3.1
 31
0.0
 12
1.7625
 22
3.1
 32
0.0
 13
1.7625
 23
3.1
 33
0.0
  0
SOLID
  5
46
100
AcDbEntity
  8
0
 62
   253
100
AcDbTrace
 10
1.95
 20
2.1
 30
0.0
 11
1.7625
 21
3.1
 31
0.0
 12
1.7625
 22
2.1
 32
0.0
 13
1.7625
 23
2.1
 33
0.0
  0
POLYLINE
  5
47
100
AcDbEntity
  8
0
  6
CONTINUOUS
 62
     7
100
AcDb2dPolyline
 66
     1
 10
0.0
 20
0.0
 30
0.0
 70
     1
  0
VERTEX
  5
48
100
AcDbEntity
  8
0
  6
CONTINUOUS
 62
     7
100
AcDbVertex
100
AcDb2dVertex
 10
1.7625
 20
2.1
 30
0.0
  0
VERTEX
  5
49
100
AcDbEntity
  8
0
  6
CONTINUOUS
 62
     7
100
AcDbVertex
100
AcDb2dVertex
 10
1.95
 20
2.1
 30
0.0
  0
VERTEX
  5
4A
100
AcDbEntity
  8
0
  6
CONTINUOUS
 62
     7
100
AcDbVertex
100
AcDb2dVertex
 10
1.95
 20
3.1
 30
0.0
  0
VERTEX
  5
4B
100
AcDbEntity
  8
0
  6
CONTINUOUS
 62
     7
100
AcDbVertex
100
AcDb2dVertex
 10
1.7625
 20
3.1
 30
0.0
  0
SEQEND
  5
4C
100
AcDbEntity
  8
0
  6
CONTINUOUS
 62
     7
  0
SOLID
  5
4D
100
AcDbEntity
  8
0
 62
   253
100
AcDbTrace
 10
1.95
 20
5.46
 30
0.0
 11
1.95
 21
6.46
 31
0.0
 12
1.7625
 22
6.46
 32
0.0
 13
1.7625
 23
6.46
 33
0.0
  0
SOLID
  5
4E
100
AcDbEntity
  8
0
 62
   253
100
AcDbTrace
 10
1.95
 20
5.46
 30
0.0
 11
1.7625
 21
6.46
 31
0.0
 12
1.7625
 22
5.46
 32
0.0
 13
1.7625
 23
5.46
 33
0.0
  0
POLYLINE
  5
4F
100
AcDbEntity
  8
0
  6
CONTINUOUS
 62
     7
100
AcDb2dPolyline
 66
     1
 10
0.0
 20
0.0
 30
0.0
 70
     1
  0
VERTEX
  5
50
100
AcDbEntity
  8
0
  6
CONTINUOUS
 62
     7
100
AcDbVertex
100
AcDb2dVertex
 10
1.7625
 20
5.46
 30
0.0
  0
VERTEX
  5
51
100
AcDbEntity
  8
0
  6
CONTINUOUS
 62
     7
100
AcDbVertex
100
AcDb2dVertex
 10
1.95
 20
5.46
 30
0.0
  0
VERTEX
  5
52
100
AcDbEntity
  8
0
  6
CONTINUOUS
 62
     7
100
AcDbVertex
100
AcDb2dVertex
 10
1.95
 20
6.46
 30
0.0
  0
VERTEX
  5
53
100
AcDbEntity
  8
0
  6
CONTINUOUS
 62
     7
100
AcDbVertex
100
AcDb2dVertex
 10
1.7625
 20
6.46
 30
0.0
  0
SEQEND
  5
54
100
AcDbEntity
  8
0
  6
CONTINUOUS
 62
     7
  0
SOLID
  5
55
100
AcDbEntity
  8
0
 62
   253
100
AcDbTrace
 10
9.7625
 20
5.46
 30
0.0
 11
9.7625
 21
6.46
 31
0.0
 12
9.575
 22
6.46
 32
0.0
 13
9.575
 23
6.46
 33
0.0
  0
SOLID
  5
56
100
AcDbEntity
  8
0
 62
   253
100
AcDbTrace
 10
9.7625
 20
5.46
 30
0.0
 11
9.575
 21
6.46
 31
0.0
 12
9.575
 22
5.46
 32
0.0
 13
9.575
 23
5.46
 33
0.0
  0
POLYLINE
  5
57
100
AcDbEntity
  8
0
  6
CONTINUOUS
 62
     7
100
AcDb2dPolyline
 66
     1
 10
0.0
 20
0.0
 30
0.0
 70
     1
  0
VERTEX
  5
58
100
AcDbEntity
  8
0
  6
CONTINUOUS
 62
     7
100
AcDbVertex
100
AcDb2dVertex
 10
9.575
 20
5.46
 30
0.0
  0
VERTEX
  5
59
100
AcDbEntity
  8
0
  6
CONTINUOUS
 62
     7
100
AcDbVertex
100
AcDb2dVertex
 10
9.7625
 20
5.46
 30
0.0
  0
VERTEX
  5
5A
100
AcDbEntity
  8
0
  6
CONTINUOUS
 62
     7
100
AcDbVertex
100
AcDb2dVertex
 10
9.7625
 20
6.46
 30
0.0
  0
VERTEX
  5
5B
100
AcDbEntity
  8
0
  6
CONTINUOUS
 62
     7
100
AcDbVertex
100
AcDb2dVertex
 10
9.575
 20
6.46
 30
0.0
  0
SEQEND
  5
5C
100
AcDbEntity
  8
0
  6
CONTINUOUS
 62
     7
  0
SOLID
  5
5D
100
AcDbEntity
  8
0
 62
   253
100
AcDbTrace
 10
9.95
 20
2.1
 30
0.0
 11
9.95
 21
3.58
 31
0.0
 12
9.7625
 22
3.58
 32
0.0
 13
9.7625
 23
3.58
 33
0.0
  0
SOLID
  5
5E
100
AcDbEntity
  8
0
 62
   253
100
AcDbTrace
 10
9.95
 20
2.1
 30
0.0
 11
9.7625
 21
3.58
 31
0.0
 12
9.7625
 22
2.1
 32
0.0
 13
9.7625
 23
2.1
 33
0.0
  0
POLYLINE
  5
5F
100
AcDbEntity
  8
0
  6
CONTINUOUS
 62
     7
100
AcDb2dPolyline
 66
     1
 10
0.0
 20
0.0
 30
0.0
 70
     1
  0
VERTEX
  5
60
100
AcDbEntity
  8
0
  6
CONTINUOUS
 62
     7
100
AcDbVertex
100
AcDb2dVertex
 10
9.7625
 20
2.1
 30
0.0
  0
VERTEX
  5
61
100
AcDbEntity
  8
0
  6
CONTINUOUS
 62
     7
100
AcDbVertex
100
AcDb2dVertex
 10
9.95
 20
2.1
 30
0.0
  0
VERTEX
  5
62
100
AcDbEntity
  8
0
  6
CONTINUOUS
 62
     7
100
AcDbVertex
100
AcDb2dVertex
 10
9.95
 20
3.58
 30
0.0
  0
VERTEX
  5
63
100
AcDbEntity
  8
0
  6
CONTINUOUS
 62
     7
100
AcDbVertex
100
AcDb2dVertex
 10
9.7625
 20
3.58
 30
0.0
  0
SEQEND
  5
64
100
AcDbEntity
  8
0
  6
CONTINUOUS
 62
     7
  0
SOLID
  5
65
100
AcDbEntity
  8
0
 62
   253
100
AcDbTrace
 10
9.95
 20
4.98
 30
0.0
 11
9.95
 21
6.46
 31
0.0
 12
9.7625
 22
6.46
 32
0.0
 13
9.7625
 23
6.46
 33
0.0
  0
SOLID
  5
66
100
AcDbEntity
  8
0
 62
   253
100
AcDbTrace
 10
9.95
 20
4.98
 30
0.0
 11
9.7625
 21
6.46
 31
0.0
 12
9.7625
 22
4.98
 32
0.0
 13
9.7625
 23
4.98
 33
0.0
  0
POLYLINE
  5
67
100
AcDbEntity
  8
0
  6
CONTINUOUS
 62
     7
100
AcDb2dPolyline
 66
     1
 10
0.0
 20
0.0
 30
0.0
 70
     1
  0
VERTEX
  5
68
100
AcDbEntity
  8
0
  6
CONTINUOUS
 62
     7
100
AcDbVertex
100
AcDb2dVertex
 10
9.7625
 20
4.98
 30
0.0
  0
VERTEX
  5
69
100
AcDbEntity
  8
0
  6
CONTINUOUS
 62
     7
100
AcDbVertex
100
AcDb2dVertex
 10
9.95
 20
4.98
 30
0.0
  0
VERTEX
  5
6A
100
AcDbEntity
  8
0
  6
CONTINUOUS
 62
     7
100
AcDbVertex
100
AcDb2dVertex
 10
9.95
 20
6.46
 30
0.0
  0
VERTEX
  5
6B
100
AcDbEntity
  8
0
  6
CONTINUOUS
 62
     7
100
AcDbVertex
100
AcDb2dVertex
 10
9.7625
 20
6.46
 30
0.0
  0
SEQEND
  5
6C
100
AcDbEntity
  8
0
  6
CONTINUOUS
 62
     7
  0
INSERT
  5
90
100
AcDbEntity
  8
0
100
AcDbBlockReference
  2
SHEET_19
 10
9.4625
 20
4.28
 30
0.0
  0
POLYLINE
  5
91
100
AcDbEntity
  8
0
  6
CONTINUOUS
 62
     7
100
AcDb2dPolyline
 66
     1
 10
0.0
 20
0.0
 30
0.0
  0
VERTEX
  5
92
100
AcDbEntity
  8
0
  6
CONTINUOUS
 62
     7
100
AcDbVertex
100
AcDb2dVertex
 10
1.7625
 20
5.32
 30
0.0
  0
VERTEX
  5
93
100
AcDbEntity
  8
0
  6
CONTINUOUS
 62
     7
100
AcDbVertex
100
AcDb2dVertex
 10
9.7625
 20
5.32
 30
0.0
  0
SEQEND
  5
94
100
AcDbEntity
  8
0
  6
CONTINUOUS
 62
     7
  0
POLYLINE
  5
95
100
AcDbEntity
  8
0
  6
CONTINUOUS
 62
     7
100
AcDb2dPolyline
 66
     1
 10
0.0
 20
0.0
 30
0.0
  0
VERTEX
  5
96
100
AcDbEntity
  8
0
  6
CONTINUOUS
 62
     7
100
AcDbVertex
100
AcDb2dVertex
 10
1.7625
 20
3.24
 30
0.0
  0
VERTEX
  5
97
100
AcDbEntity
  8
0
  6
CONTINUOUS
 62
     7
100
AcDbVertex
100
AcDb2dVertex
 10
9.7625
 20
3.24
 30
0.0
  0
SEQEND
  5
98
100
AcDbEntity
  8
0
  6
CONTINUOUS
 62
     7
  0
POLYLINE
  5
99
100
AcDbEntity
  8
0
  6
CONTINUOUS
 62
     7
100
AcDb2dPolyline
 66
     1
 10
0.0
 20
0.0
 30
0.0
  0
VERTEX
  5
9A
100
AcDbEntity
  8
0
  6
CONTINUOUS
 62
     7
100
AcDbVertex
100
AcDb2dVertex
 10
1.769643
 20
3.1
 30
0.0
  0
VERTEX
  5
9B
100
AcDbEntity
  8
0
  6
CONTINUOUS
 62
     7
100
AcDbVertex
100
AcDb2dVertex
 10
9.769643
 20
3.1
 30
0.0
  0
SEQEND
  5
9C
100
AcDbEntity
  8
0
  6
CONTINUOUS
 62
     7
  0
POLYLINE
  5
9D
100
AcDbEntity
  8
0
  6
CONTINUOUS
 62
     7
100
AcDb2dPolyline
 66
     1
 10
0.0
 20
0.0
 30
0.0
  0
VERTEX
  5
9E
100
AcDbEntity
  8
0
  6
CONTINUOUS
 62
     7
100
AcDbVertex
100
AcDb2dVertex
 10
1.7625
 20
5.46
 30
0.0
  0
VERTEX
  5
9F
100
AcDbEntity
  8
0
  6
CONTINUOUS
 62
     7
100
AcDbVertex
100
AcDb2dVertex
 10
9.7625
 20
5.46
 30
0.0
  0
SEQEND
  5
A0
100
AcDbEntity
  8
0
  6
CONTINUOUS
 62
     7
  0
POLYLINE
  5
A1
100
AcDbEntity
  8
0
  6
CONTINUOUS
 62
     7
100
AcDb2dPolyline
 66
     1
 10
0.0
 20
0.0
 30
0.0
  0
VERTEX
  5
A2
100
AcDbEntity
  8
0
  6
CONTINUOUS
 62
     7
100
AcDbVertex
100
AcDb2dVertex
 10
10.1625
 20
3.65
 30
0.0
  0
VERTEX
  5
A3
100
AcDbEntity
  8
0
  6
CONTINUOUS
 62
     7
100
AcDbVertex
100
AcDb2dVertex
 10
9.525
 20
4.024707
 30
0.0
  0
SEQEND
  5
A4
100
AcDbEntity
  8
0
  6
CONTINUOUS
 62
     7
  0
POLYLINE
  5
A5
100
AcDbEntity
  8
0
  6
CONTINUOUS
 62
     7
100
AcDb2dPolyline
 66
     1
 10
0.0
 20
0.0
 30
0.0
  0
VERTEX
  5
A6
100
AcDbEntity
  8
0
  6
CONTINUOUS
 62
     7
100
AcDbVertex
100
AcDb2dVertex
 10
10.1625
 20
4.9
 30
0.0
  0
VERTEX
  5
A7
100
AcDbEntity
  8
0
  6
CONTINUOUS
 62
     7
100
AcDbVertex
100
AcDb2dVertex
 10
9.515
 20
4.542436
 30
0.0
  0
SEQEND
  5
A8
100
AcDbEntity
  8
0
  6
CONTINUOUS
 62
     7
  0
POLYLINE
  5
A9
100
AcDbEntity
  8
0
  6
CONTINUOUS
 62
     7
100
AcDb2dPolyline
 66
     1
 10
0.0
 20
0.0
 30
0.0
  0
VERTEX
  5
AA
100
AcDbEntity
  8
0
  6
CONTINUOUS
 62
     7
100
AcDbVertex
100
AcDb2dVertex
 10
9.283929
 20
4.024707
 30
0.0
  0
VERTEX
  5
AB
100
AcDbEntity
  8
0
  6
CONTINUOUS
 62
     7
100
AcDbVertex
100
AcDb2dVertex
 10
8.7625
 20
3.35
 30
0.0
  0
SEQEND
  5
AC
100
AcDbEntity
  8
0
  6
CONTINUOUS
 62
     7
  0
POLYLINE
  5
AD
100
AcDbEntity
  8
0
  6
CONTINUOUS
 62
     7
100
AcDb2dPolyline
 66
     1
 10
0.0
 20
0.0
 30
0.0
  0
VERTEX
  5
AE
100
AcDbEntity
  8
0
  6
CONTINUOUS
 62
     7
100
AcDbVertex
100
AcDb2dVertex
 10
9.515
 20
4.542436
 30
0.0
  0
VERTEX
  5
AF
100
AcDbEntity
  8
0
  6
CONTINUOUS
 62
     7
100
AcDbVertex
100
AcDb2dVertex
 10
9.283929
 20
4.542436
 30
0.0
  0
SEQEND
  5
B0
100
AcDbEntity
  8
0
  6
CONTINUOUS
 62
     7
  0
POLYLINE
  5
B1
100
AcDbEntity
  8
0
  6
CONTINUOUS
 62
     7
100
AcDb2dPolyline
 66
     1
 10
0.0
 20
0.0
 30
0.0
  0
VERTEX
  5
B2
100
AcDbEntity
  8
0
  6
CONTINUOUS
 62
     7
100
AcDbVertex
100
AcDb2dVertex
 10
9.525
 20
4.024707
 30
0.0
  0
VERTEX
  5
B3
100
AcDbEntity
  8
0
  6
CONTINUOUS
 62
     7
100
AcDbVertex
100
AcDb2dVertex
 10
9.283929
 20
4.024707
 30
0.0
  0
SEQEND
  5
B4
100
AcDbEntity
  8
0
  6
CONTINUOUS
 62
     7
  0
POLYLINE
  5
B5
100
AcDbEntity
  8
0
  6
CONTINUOUS
 62
     7
100
AcDb2dPolyline
 66
     1
 10
0.0
 20
0.0
 30
0.0
  0
VERTEX
  5
B6
100
AcDbEntity
  8
0
  6
CONTINUOUS
 62
     7
100
AcDbVertex
100
AcDb2dVertex
 10
9.281205
 20
4.545
 30
0.0
  0
VERTEX
  5
B7
100
AcDbEntity
  8
0
  6
CONTINUOUS
 62
     7
100
AcDbVertex
100
AcDb2dVertex
 10
8.7625
 20
5.2
 30
0.0
  0
SEQEND
  5
B8
100
AcDbEntity
  8
0
  6
CONTINUOUS
 62
     7
  0
SOLID
  5
B9
100
AcDbEntity
  8
0
 62
   253
100
AcDbTrace
 10
9.0125
 20
5.28
 30
0.0
 11
9.0125
 21
5.315
 31
0.0
 12
3.0125
 22
5.315
 32
0.0
 13
3.0125
 23
5.315
 33
0.0
  0
SOLID
  5
BA
100
AcDbEntity
  8
0
 62
   253
100
AcDbTrace
 10
9.0125
 20
5.28
 30
0.0
 11
3.0125
 21
5.315
 31
0.0
 12
3.0125
 22
5.28
 32
0.0
 13
3.0125
 23
5.28
 33
0.0
  0
POLYLINE
  5
BB
100
AcDbEntity
  8
0
  6
CONTINUOUS
 62
     7
100
AcDb2dPolyline
 66
     1
 10
0.0
 20
0.0
 30
0.0
 70
     1
  0
VERTEX
  5
BC
100
AcDbEntity
  8
0
  6
CONTINUOUS
 62
     7
100
AcDbVertex
100
AcDb2dVertex
 10
3.0125
 20
5.28
 30
0.0
  0
VERTEX
  5
BD
100
AcDbEntity
  8
0
  6
CONTINUOUS
 62
     7
100
AcDbVertex
100
AcDb2dVertex
 10
9.0125
 20
5.28
 30
0.0
  0
VERTEX
  5
BE
100
AcDbEntity
  8
0
  6
CONTINUOUS
 62
     7
100
AcDbVertex
100
AcDb2dVertex
 10
9.0125
 20
5.315
 30
0.0
  0
VERTEX
  5
BF
100
AcDbEntity
  8
0
  6
CONTINUOUS
 62
     7
100
AcDbVertex
100
AcDb2dVertex
 10
3.0125
 20
5.315
 30
0.0
  0
SEQEND
  5
C0
100
AcDbEntity
  8
0
  6
CONTINUOUS
 62
     7
  0
SOLID
  5
C1
100
AcDbEntity
  8
0
 62
   253
100
AcDbTrace
 10
9.0125
 20
3.245
 30
0.0
 11
9.0125
 21
3.28
 31
0.0
 12
3.0125
 22
3.28
 32
0.0
 13
3.0125
 23
3.28
 33
0.0
  0
SOLID
  5
C2
100
AcDbEntity
  8
0
 62
   253
100
AcDbTrace
 10
9.0125
 20
3.245
 30
0.0
 11
3.0125
 21
3.28
 31
0.0
 12
3.0125
 22
3.245
 32
0.0
 13
3.0125
 23
3.245
 33
0.0
  0
POLYLINE
  5
C3
100
AcDbEntity
  8
0
  6
CONTINUOUS
 62
     7
100
AcDb2dPolyline
 66
     1
 10
0.0
 20
0.0
 30
0.0
 70
     1
  0
VERTEX
  5
C4
100
AcDbEntity
  8
0
  6
CONTINUOUS
 62
     7
100
AcDbVertex
100
AcDb2dVertex
 10
3.0125
 20
3.245
 30
0.0
  0
VERTEX
  5
C5
100
AcDbEntity
  8
0
  6
CONTINUOUS
 62
     7
100
AcDbVertex
100
AcDb2dVertex
 10
9.0125
 20
3.245
 30
0.0
  0
VERTEX
  5
C6
100
AcDbEntity
  8
0
  6
CONTINUOUS
 62
     7
100
AcDbVertex
100
AcDb2dVertex
 10
9.0125
 20
3.28
 30
0.0
  0
VERTEX
  5
C7
100
AcDbEntity
  8
0
  6
CONTINUOUS
 62
     7
100
AcDbVertex
100
AcDb2dVertex
 10
3.0125
 20
3.28
 30
0.0
  0
SEQEND
  5
C8
100
AcDbEntity
  8
0
  6
CONTINUOUS
 62
     7
  0
POLYLINE
  5
CA
100
AcDbEntity
  8
0
  6
DASHED
 62
     7
100
AcDb2dPolyline
 66
     1
 10
0.0
 20
0.0
 30
0.0
  0
VERTEX
  5
CB
100
AcDbEntity
  8
0
  6
DASHED
 62
     7
100
AcDbVertex
100
AcDb2dVertex
 10
3.2625
 20
5.28
 30
0.0
  0
VERTEX
  5
CC
100
AcDbEntity
  8
0
  6
DASHED
 62
     7
100
AcDbVertex
100
AcDb2dVertex
 10
3.2625
 20
3.28
 30
0.0
  0
SEQEND
  5
CD
100
AcDbEntity
  8
0
  6
DASHED
 62
     7
  0
POLYLINE
  5
CE
100
AcDbEntity
  8
0
  6
DASHED
 62
     7
100
AcDb2dPolyline
 66
     1
 10
0.0
 20
0.0
 30
0.0
  0
VERTEX
  5
CF
100
AcDbEntity
  8
0
  6
DASHED
 62
     7
100
AcDbVertex
100
AcDb2dVertex
 10
3.2625
 20
4.03
 30
0.0
  0
VERTEX
  5
D0
100
AcDbEntity
  8
0
  6
DASHED
 62
     7
100
AcDbVertex
100
AcDb2dVertex
 10
8.7625
 20
4.03
 30
0.0
  0
SEQEND
  5
D1
100
AcDbEntity
  8
0
  6
DASHED
 62
     7
  0
POLYLINE
  5
D2
100
AcDbEntity
  8
0
  6
DASHED
 62
     7
100
AcDb2dPolyline
 66
     1
 10
0.0
 20
0.0
 30
0.0
  0
VERTEX
  5
D3
100
AcDbEntity
  8
0
  6
DASHED
 62
     7
100
AcDbVertex
100
AcDb2dVertex
 10
3.2625
 20
4.53
 30
0.0
  0
VERTEX
  5
D4
100
AcDbEntity
  8
0
  6
DASHED
 62
     7
100
AcDbVertex
100
AcDb2dVertex
 10
8.7625
 20
4.53
 30
0.0
  0
SEQEND
  5
D5
100
AcDbEntity
  8
0
  6
DASHED
 62
     7
  0
SOLID
  5
D6
100
AcDbEntity
  8
0
 62
     7
100
AcDbTrace
 10
9.223674
 20
3.289092
 30
0.0
 11
9.181374
 21
3.298746
 31
0.0
 12
9.147452
 22
3.271694
 32
0.0
 13
9.147452
 23
3.271694
 33
0.0
  0
SOLID
  5
D7
100
AcDbEntity
  8
0
 62
     7
100
AcDbTrace
 10
9.223674
 20
3.289092
 30
0.0
 11
9.147452
 21
3.271694
 31
0.0
 12
9.147452
 22
3.228306
 32
0.0
 13
9.147452
 23
3.228306
 33
0.0
  0
SOLID
  5
D8
100
AcDbEntity
  8
0
 62
     7
100
AcDbTrace
 10
9.223674
 20
3.289092
 30
0.0
 11
9.147452
 21
3.228306
 31
0.0
 12
9.181374
 22
3.201254
 32
0.0
 13
9.181374
 23
3.201254
 33
0.0
  0
SOLID
  5
D9
100
AcDbEntity
  8
0
 62
     7
100
AcDbTrace
 10
9.223674
 20
3.289092
 30
0.0
 11
9.181374
 21
3.201254
 31
0.0
 12
9.223674
 22
3.210908
 32
0.0
 13
9.223674
 23
3.210908
 33
0.0
  0
SOLID
  5
DA
100
AcDbEntity
  8
0
 62
     7
100
AcDbTrace
 10
9.223674
 20
3.289092
 30
0.0
 11
9.223674
 21
3.210908
 31
0.0
 12
9.2425
 22
3.25
 32
0.0
 13
9.2425
 23
3.25
 33
0.0
  0
POLYLINE
  5
DB
100
AcDbEntity
  8
0
  6
CONTINUOUS
 62
     7
100
AcDb2dPolyline
 66
     1
 10
0.0
 20
0.0
 30
0.0
 70
     1
  0
VERTEX
  5
DC
100
AcDbEntity
  8
0
  6
CONTINUOUS
 62
     7
100
AcDbVertex
100
AcDb2dVertex
 10
9.2425
 20
3.25
 30
0.0
 42
1.0
  0
VERTEX
  5
DD
100
AcDbEntity
  8
0
  6
CONTINUOUS
 62
     7
100
AcDbVertex
100
AcDb2dVertex
 10
9.1425
 20
3.25
 30
0.0
 42
1.0
  0
SEQEND
  5
DE
100
AcDbEntity
  8
0
  6
CONTINUOUS
 62
     7
  0
SOLID
  5
DF
100
AcDbEntity
  8
0
 62
     7
100
AcDbTrace
 10
9.563674
 20
3.289092
 30
0.0
 11
9.521374
 21
3.298746
 31
0.0
 12
9.487452
 22
3.271694
 32
0.0
 13
9.487452
 23
3.271694
 33
0.0
  0
SOLID
  5
E0
100
AcDbEntity
  8
0
 62
     7
100
AcDbTrace
 10
9.563674
 20
3.289092
 30
0.0
 11
9.487452
 21
3.271694
 31
0.0
 12
9.487452
 22
3.228306
 32
0.0
 13
9.487452
 23
3.228306
 33
0.0
  0
SOLID
  5
E1
100
AcDbEntity
  8
0
 62
     7
100
AcDbTrace
 10
9.563674
 20
3.289092
 30
0.0
 11
9.487452
 21
3.228306
 31
0.0
 12
9.521374
 22
3.201254
 32
0.0
 13
9.521374
 23
3.201254
 33
0.0
  0
SOLID
  5
E2
100
AcDbEntity
  8
0
 62
     7
100
AcDbTrace
 10
9.563674
 20
3.289092
 30
0.0
 11
9.521374
 21
3.201254
 31
0.0
 12
9.563674
 22
3.210908
 32
0.0
 13
9.563674
 23
3.210908
 33
0.0
  0
SOLID
  5
E3
100
AcDbEntity
  8
0
 62
     7
100
AcDbTrace
 10
9.563674
 20
3.289092
 30
0.0
 11
9.563674
 21
3.210908
 31
0.0
 12
9.5825
 22
3.25
 32
0.0
 13
9.5825
 23
3.25
 33
0.0
  0
POLYLINE
  5
E4
100
AcDbEntity
  8
0
  6
CONTINUOUS
 62
     7
100
AcDb2dPolyline
 66
     1
 10
0.0
 20
0.0
 30
0.0
 70
     1
  0
VERTEX
  5
E5
100
AcDbEntity
  8
0
  6
CONTINUOUS
 62
     7
100
AcDbVertex
100
AcDb2dVertex
 10
9.5825
 20
3.25
 30
0.0
 42
1.0
  0
VERTEX
  5
E6
100
AcDbEntity
  8
0
  6
CONTINUOUS
 62
     7
100
AcDbVertex
100
AcDb2dVertex
 10
9.4825
 20
3.25
 30
0.0
 42
1.0
  0
SEQEND
  5
E7
100
AcDbEntity
  8
0
  6
CONTINUOUS
 62
     7
  0
SOLID
  5
E8
100
AcDbEntity
  8
0
 62
     7
100
AcDbTrace
 10
9.223674
 20
5.349092
 30
0.0
 11
9.181374
 21
5.358746
 31
0.0
 12
9.147452
 22
5.331694
 32
0.0
 13
9.147452
 23
5.331694
 33
0.0
  0
SOLID
  5
E9
100
AcDbEntity
  8
0
 62
     7
100
AcDbTrace
 10
9.223674
 20
5.349092
 30
0.0
 11
9.147452
 21
5.331694
 31
0.0
 12
9.147452
 22
5.288306
 32
0.0
 13
9.147452
 23
5.288306
 33
0.0
  0
SOLID
  5
EA
100
AcDbEntity
  8
0
 62
     7
100
AcDbTrace
 10
9.223674
 20
5.349092
 30
0.0
 11
9.147452
 21
5.288306
 31
0.0
 12
9.181374
 22
5.261254
 32
0.0
 13
9.181374
 23
5.261254
 33
0.0
  0
SOLID
  5
EB
100
AcDbEntity
  8
0
 62
     7
100
AcDbTrace
 10
9.223674
 20
5.349092
 30
0.0
 11
9.181374
 21
5.261254
 31
0.0
 12
9.223674
 22
5.270908
 32
0.0
 13
9.223674
 23
5.270908
 33
0.0
  0
SOLID
  5
EC
100
AcDbEntity
  8
0
 62
     7
100
AcDbTrace
 10
9.223674
 20
5.349092
 30
0.0
 11
9.223674
 21
5.270908
 31
0.0
 12
9.2425
 22
5.31
 32
0.0
 13
9.2425
 23
5.31
 33
0.0
  0
POLYLINE
  5
ED
100
AcDbEntity
  8
0
  6
CONTINUOUS
 62
     7
100
AcDb2dPolyline
 66
     1
 10
0.0
 20
0.0
 30
0.0
 70
     1
  0
VERTEX
  5
EE
100
AcDbEntity
  8
0
  6
CONTINUOUS
 62
     7
100
AcDbVertex
100
AcDb2dVertex
 10
9.2425
 20
5.31
 30
0.0
 42
1.0
  0
VERTEX
  5
EF
100
AcDbEntity
  8
0
  6
CONTINUOUS
 62
     7
100
AcDbVertex
100
AcDb2dVertex
 10
9.1425
 20
5.31
 30
0.0
 42
1.0
  0
SEQEND
  5
F0
100
AcDbEntity
  8
0
  6
CONTINUOUS
 62
     7
  0
SOLID
  5
F1
100
AcDbEntity
  8
0
 62
     7
100
AcDbTrace
 10
9.563674
 20
5.349092
 30
0.0
 11
9.521374
 21
5.358746
 31
0.0
 12
9.487452
 22
5.331694
 32
0.0
 13
9.487452
 23
5.331694
 33
0.0
  0
SOLID
  5
F2
100
AcDbEntity
  8
0
 62
     7
100
AcDbTrace
 10
9.563674
 20
5.349092
 30
0.0
 11
9.487452
 21
5.331694
 31
0.0
 12
9.487452
 22
5.288306
 32
0.0
 13
9.487452
 23
5.288306
 33
0.0
  0
SOLID
  5
F3
100
AcDbEntity
  8
0
 62
     7
100
AcDbTrace
 10
9.563674
 20
5.349092
 30
0.0
 11
9.487452
 21
5.288306
 31
0.0
 12
9.521374
 22
5.261254
 32
0.0
 13
9.521374
 23
5.261254
 33
0.0
  0
SOLID
  5
F4
100
AcDbEntity
  8
0
 62
     7
100
AcDbTrace
 10
9.563674
 20
5.349092
 30
0.0
 11
9.521374
 21
5.261254
 31
0.0
 12
9.563674
 22
5.270908
 32
0.0
 13
9.563674
 23
5.270908
 33
0.0
  0
SOLID
  5
F5
100
AcDbEntity
  8
0
 62
     7
100
AcDbTrace
 10
9.563674
 20
5.349092
 30
0.0
 11
9.563674
 21
5.270908
 31
0.0
 12
9.5825
 22
5.31
 32
0.0
 13
9.5825
 23
5.31
 33
0.0
  0
POLYLINE
  5
F6
100
AcDbEntity
  8
0
  6
CONTINUOUS
 62
     7
100
AcDb2dPolyline
 66
     1
 10
0.0
 20
0.0
 30
0.0
 70
     1
  0
VERTEX
  5
F7
100
AcDbEntity
  8
0
  6
CONTINUOUS
 62
     7
100
AcDbVertex
100
AcDb2dVertex
 10
9.5825
 20
5.31
 30
0.0
 42
1.0
  0
VERTEX
  5
F8
100
AcDbEntity
  8
0
  6
CONTINUOUS
 62
     7
100
AcDbVertex
100
AcDb2dVertex
 10
9.4825
 20
5.31
 30
0.0
 42
1.0
  0
SEQEND
  5
F9
100
AcDbEntity
  8
0
  6
CONTINUOUS
 62
     7
  0
POLYLINE
  5
FA
100
AcDbEntity
  8
0
  6
CONTINUOUS
 62
     7
100
AcDb2dPolyline
 66
     1
 10
0.0
 20
0.0
 30
0.0
  0
VERTEX
  5
FB
100
AcDbEntity
  8
0
  6
CONTINUOUS
 62
     7
100
AcDbVertex
100
AcDb2dVertex
 10
1.7625
 20
3.24
 30
0.0
  0
VERTEX
  5
FC
100
AcDbEntity
  8
0
  6
CONTINUOUS
 62
     7
100
AcDbVertex
100
AcDb2dVertex
 10
1.7625
 20
3.1
 30
0.0
  0
SEQEND
  5
FD
100
AcDbEntity
  8
0
  6
CONTINUOUS
 62
     7
  0
POLYLINE
  5
FE
100
AcDbEntity
  8
0
  6
CONTINUOUS
 62
     7
100
AcDb2dPolyline
 66
     1
 10
0.0
 20
0.0
 30
0.0
  0
VERTEX
  5
FF
100
AcDbEntity
  8
0
  6
CONTINUOUS
 62
     7
100
AcDbVertex
100
AcDb2dVertex
 10
1.7475
 20
6.460779
 30
0.0
  0
VERTEX
  5
100
100
AcDbEntity
  8
0
  6
CONTINUOUS
 62
     7
100
AcDbVertex
100
AcDb2dVertex
 10
1.7475
 20
5.310779
 30
0.0
  0
SEQEND
  5
101
100
AcDbEntity
  8
0
  6
CONTINUOUS
 62
     7
  0
POLYLINE
  5
102
100
AcDbEntity
  8
0
  6
CONTINUOUS
 62
     7
100
AcDb2dPolyline
 66
     1
 10
0.0
 20
0.0
 30
0.0
  0
VERTEX
  5
103
100
AcDbEntity
  8
0
  6
CONTINUOUS
 62
     7
100
AcDbVertex
100
AcDb2dVertex
 10
1.7625
 20
5.46
 30
0.0
  0
VERTEX
  5
104
100
AcDbEntity
  8
0
  6
CONTINUOUS
 62
     7
100
AcDbVertex
100
AcDb2dVertex
 10
1.7625
 20
5.32
 30
0.0
  0
SEQEND
  5
105
100
AcDbEntity
  8
0
  6
CONTINUOUS
 62
     7
  0
INSERT
  5
123
100
AcDbEntity
  8
DIMENSIONS
100
AcDbBlockReference
 66
     1
  2
VERTICAL
 10
9.95
 20
2.1
 30
0.0
  0
ATTRIB
  5
124
100
AcDbEntity
  8
DIMENSIONS
100
AcDbText
 10
9.95
 20
2.85
 30
0.0
 40
0.25
  1
User.LPrecVal
100
AcDbAttribute
  2
PRECISION
 70
     1
  0
ATTRIB
  5
125
100
AcDbEntity
  8
DIMENSIONS
100
AcDbText
 10
9.95
 20
2.475
 30
0.0
 40
0.25
  1
User.LUnitsVal
100
AcDbAttribute
  2
UNITS
 70
     1
  0
ATTRIB
  5
126
100
AcDbEntity
  8
DIMENSIONS
100
AcDbText
 10
9.95
 20
2.1
 30
0.0
 40
0.25
  1
User.ShowUnitsVal
100
AcDbAttribute
  2
UNITSDISPLAY
 70
     1
  0
ATTRIB
  5
127
100
AcDbEntity
  8
DIMENSIONS
100
AcDbText
 10
9.95
 20
1.725
 30
0.0
 40
0.25
  1
Both
100
AcDbAttribute
  2
EXTENSIONLINES
 70
     1
  0
ATTRIB
  5
128
100
AcDbEntity
  8
DIMENSIONS
100
AcDbText
 10
9.95
 20
1.35
 30
0.0
 40
0.25
  1
90 deg.
100
AcDbAttribute
  2
ANGLE
 70
     1
  0
SEQEND
  5
129
100
AcDbEntity
  8
DIMENSIONS
  0
INSERT
  5
145
100
AcDbEntity
  8
DIMENSIONS
100
AcDbBlockReference
 66
     1
  2
VERTICAL_57
 10
2.825
 20
5.46
 30
0.0
  0
ATTRIB
  5
146
100
AcDbEntity
  8
DIMENSIONS
100
AcDbText
 10
2.825
 20
6.21
 30
0.0
 40
0.25
  1
User.LPrecVal
100
AcDbAttribute
  2
PRECISION
 70
     1
  0
ATTRIB
  5
147
100
AcDbEntity
  8
DIMENSIONS
100
AcDbText
 10
2.825
 20
5.835
 30
0.0
 40
0.25
  1
User.LUnitsVal
100
AcDbAttribute
  2
UNITS
 70
     1
  0
ATTRIB
  5
148
100
AcDbEntity
  8
DIMENSIONS
100
AcDbText
 10
2.825
 20
5.46
 30
0.0
 40
0.25
  1
User.ShowUnitsVal
100
AcDbAttribute
  2
UNITSDISPLAY
 70
     1
  0
ATTRIB
  5
149
100
AcDbEntity
  8
DIMENSIONS
100
AcDbText
 10
2.825
 20
5.085
 30
0.0
 40
0.25
  1
Both
100
AcDbAttribute
  2
EXTENSIONLINES
 70
     1
  0
ATTRIB
  5
14A
100
AcDbEntity
  8
DIMENSIONS
100
AcDbText
 10
2.825
 20
4.71
 30
0.0
 40
0.25
  1
90 deg.
100
AcDbAttribute
  2
ANGLE
 70
     1
  0
SEQEND
  5
14B
100
AcDbEntity
  8
DIMENSIONS
  0
INSERT
  5
167
100
AcDbEntity
  8
DIMENSIONS
100
AcDbBlockReference
 66
     1
  2
VERTICAL_58
 10
2.825
 20
2.1
 30
0.0
  0
ATTRIB
  5
168
100
AcDbEntity
  8
DIMENSIONS
100
AcDbText
 10
2.825
 20
2.85
 30
0.0
 40
0.25
  1
User.LPrecVal
100
AcDbAttribute
  2
PRECISION
 70
     1
  0
ATTRIB
  5
169
100
AcDbEntity
  8
DIMENSIONS
100
AcDbText
 10
2.825
 20
2.475
 30
0.0
 40
0.25
  1
User.LUnitsVal
100
AcDbAttribute
  2
UNITS
 70
     1
  0
ATTRIB
  5
16A
100
AcDbEntity
  8
DIMENSIONS
100
AcDbText
 10
2.825
 20
2.1
 30
0.0
 40
0.25
  1
User.ShowUnitsVal
100
AcDbAttribute
  2
UNITSDISPLAY
 70
     1
  0
ATTRIB
  5
16B
100
AcDbEntity
  8
DIMENSIONS
100
AcDbText
 10
2.825
 20
1.725
 30
0.0
 40
0.25
  1
Both
100
AcDbAttribute
  2
EXTENSIONLINES
 70
     1
  0
ATTRIB
  5
16C
100
AcDbEntity
  8
DIMENSIONS
100
AcDbText
 10
2.825
 20
1.35
 30
0.0
 40
0.25
  1
90 deg.
100
AcDbAttribute
  2
ANGLE
 70
     1
  0
SEQEND
  5
16D
100
AcDbEntity
  8
DIMENSIONS
  0
INSERT
  5
189
100
AcDbEntity
  8
DIMENSIONS
100
AcDbBlockReference
 66
     1
  2
VERTICAL_59
 10
2.825
 20
2.6
 30
0.0
  0
ATTRIB
  5
18A
100
AcDbEntity
  8
DIMENSIONS
100
AcDbText
 10
2.825
 20
3.35
 30
0.0
 40
0.25
  1
User.LPrecVal
100
AcDbAttribute
  2
PRECISION
 70
     1
  0
ATTRIB
  5
18B
100
AcDbEntity
  8
DIMENSIONS
100
AcDbText
 10
2.825
 20
2.975
 30
0.0
 40
0.25
  1
User.LUnitsVal
100
AcDbAttribute
  2
UNITS
 70
     1
  0
ATTRIB
  5
18C
100
AcDbEntity
  8
DIMENSIONS
100
AcDbText
 10
2.825
 20
2.6
 30
0.0
 40
0.25
  1
User.ShowUnitsVal
100
AcDbAttribute
  2
UNITSDISPLAY
 70
     1
  0
ATTRIB
  5
18D
100
AcDbEntity
  8
DIMENSIONS
100
AcDbText
 10
2.825
 20
2.225
 30
0.0
 40
0.25
  1
Both
100
AcDbAttribute
  2
EXTENSIONLINES
 70
     1
  0
ATTRIB
  5
18E
100
AcDbEntity
  8
DIMENSIONS
100
AcDbText
 10
2.825
 20
1.85
 30
0.0
 40
0.25
  1
90 deg.
100
AcDbAttribute
  2
ANGLE
 70
     1
  0
SEQEND
  5
18F
100
AcDbEntity
  8
DIMENSIONS
  0
INSERT
  5
1AB
100
AcDbEntity
  8
DIMENSIONS
100
AcDbBlockReference
 66
     1
  2
VERTICAL_60
 10
2.52
 20
3.25
 30
0.0
  0
ATTRIB
  5
1AC
100
AcDbEntity
  8
DIMENSIONS
100
AcDbText
 10
2.52
 20
4.0
 30
0.0
 40
0.25
  1
User.LPrecVal
100
AcDbAttribute
  2
PRECISION
 70
     1
  0
ATTRIB
  5
1AD
100
AcDbEntity
  8
DIMENSIONS
100
AcDbText
 10
2.52
 20
3.625
 30
0.0
 40
0.25
  1
User.LUnitsVal
100
AcDbAttribute
  2
UNITS
 70
     1
  0
ATTRIB
  5
1AE
100
AcDbEntity
  8
DIMENSIONS
100
AcDbText
 10
2.52
 20
3.25
 30
0.0
 40
0.25
  1
User.ShowUnitsVal
100
AcDbAttribute
  2
UNITSDISPLAY
 70
     1
  0
ATTRIB
  5
1AF
100
AcDbEntity
  8
DIMENSIONS
100
AcDbText
 10
2.52
 20
2.875
 30
0.0
 40
0.25
  1
Both
100
AcDbAttribute
  2
EXTENSIONLINES
 70
     1
  0
ATTRIB
  5
1B0
100
AcDbEntity
  8
DIMENSIONS
100
AcDbText
 10
2.52
 20
2.5
 30
0.0
 40
0.25
  1
90 deg.
100
AcDbAttribute
  2
ANGLE
 70
     1
  0
SEQEND
  5
1B1
100
AcDbEntity
  8
DIMENSIONS
  0
INSERT
  5
1CD
100
AcDbEntity
  8
DIMENSIONS
100
AcDbBlockReference
 66
     1
  2
VERTICAL_61
 10
5.1
 20
3.11
 30
0.0
  0
ATTRIB
  5
1CE
100
AcDbEntity
  8
DIMENSIONS
100
AcDbText
 10
5.1
 20
3.86
 30
0.0
 40
0.25
  1
User.LPrecVal
100
AcDbAttribute
  2
PRECISION
 70
     1
  0
ATTRIB
  5
1CF
100
AcDbEntity
  8
DIMENSIONS
100
AcDbText
 10
5.1
 20
3.485
 30
0.0
 40
0.25
  1
User.LUnitsVal
100
AcDbAttribute
  2
UNITS
 70
     1
  0
ATTRIB
  5
1D0
100
AcDbEntity
  8
DIMENSIONS
100
AcDbText
 10
5.1
 20
3.11
 30
0.0
 40
0.25
  1
User.ShowUnitsVal
100
AcDbAttribute
  2
UNITSDISPLAY
 70
     1
  0
ATTRIB
  5
1D1
100
AcDbEntity
  8
DIMENSIONS
100
AcDbText
 10
5.1
 20
2.735
 30
0.0
 40
0.25
  1
Both
100
AcDbAttribute
  2
EXTENSIONLINES
 70
     1
  0
ATTRIB
  5
1D2
100
AcDbEntity
  8
DIMENSIONS
100
AcDbText
 10
5.1
 20
2.36
 30
0.0
 40
0.25
  1
90 deg.
100
AcDbAttribute
  2
ANGLE
 70
     1
  0
SEQEND
  5
1D3
100
AcDbEntity
  8
DIMENSIONS
  0
INSERT
  5
1EF
100
AcDbEntity
  8
DIMENSIONS
100
AcDbBlockReference
 66
     1
  2
VERTICAL_62
 10
7.425
 20
3.1
 30
0.0
  0
ATTRIB
  5
1F0
100
AcDbEntity
  8
DIMENSIONS
100
AcDbText
 10
7.425
 20
3.85
 30
0.0
 40
0.25
  1
0.000
100
AcDbAttribute
  2
PRECISION
 70
     1
  0
ATTRIB
  5
1F1
100
AcDbEntity
  8
DIMENSIONS
100
AcDbText
 10
7.425
 20
3.475
 30
0.0
 40
0.25
  1
User.LUnitsVal
100
AcDbAttribute
  2
UNITS
 70
     1
  0
ATTRIB
  5
1F2
100
AcDbEntity
  8
DIMENSIONS
100
AcDbText
 10
7.425
 20
3.1
 30
0.0
 40
0.25
  1
User.ShowUnitsVal
100
AcDbAttribute
  2
UNITSDISPLAY
 70
     1
  0
ATTRIB
  5
1F3
100
AcDbEntity
  8
DIMENSIONS
100
AcDbText
 10
7.425
 20
2.725
 30
0.0
 40
0.25
  1
Both
100
AcDbAttribute
  2
EXTENSIONLINES
 70
     1
  0
ATTRIB
  5
1F4
100
AcDbEntity
  8
DIMENSIONS
100
AcDbText
 10
7.425
 20
2.35
 30
0.0
 40
0.25
  1
90 deg.
100
AcDbAttribute
  2
ANGLE
 70
     1
  0
SEQEND
  5
1F5
100
AcDbEntity
  8
DIMENSIONS
  0
INSERT
  5
211
100
AcDbEntity
  8
DIMENSIONS
100
AcDbBlockReference
 66
     1
  2
HORIZONTAL
 10
3.275
 20
5.55
 30
0.0
  0
ATTRIB
  5
212
100
AcDbEntity
  8
DIMENSIONS
100
AcDbText
 10
3.275
 20
6.3
 30
0.0
 40
0.25
  1
User.LPrecVal
100
AcDbAttribute
  2
PRECISION
 70
     1
  0
ATTRIB
  5
213
100
AcDbEntity
  8
DIMENSIONS
100
AcDbText
 10
3.275
 20
5.925
 30
0.0
 40
0.25
  1
User.LUnitsVal
100
AcDbAttribute
  2
UNITS
 70
     1
  0
ATTRIB
  5
214
100
AcDbEntity
  8
DIMENSIONS
100
AcDbText
 10
3.275
 20
5.55
 30
0.0
 40
0.25
  1
User.ShowUnitsVal
100
AcDbAttribute
  2
UNITSDISPLAY
 70
     1
  0
ATTRIB
  5
215
100
AcDbEntity
  8
DIMENSIONS
100
AcDbText
 10
3.275
 20
5.175
 30
0.0
 40
0.25
  1
Both
100
AcDbAttribute
  2
EXTENSIONLINES
 70
     1
  0
ATTRIB
  5
216
100
AcDbEntity
  8
DIMENSIONS
100
AcDbText
 10
3.275
 20
4.8
 30
0.0
 40
0.25
  1
0 deg.
100
AcDbAttribute
  2
ANGLE
 70
     1
  0
SEQEND
  5
217
100
AcDbEntity
  8
DIMENSIONS
  0
INSERT
  5
233
100
AcDbEntity
  8
DIMENSIONS
100
AcDbBlockReference
 66
     1
  2
HORIZONTAL_64
 10
3.025
 20
5.55
 30
0.0
  0
ATTRIB
  5
234
100
AcDbEntity
  8
DIMENSIONS
100
AcDbText
 10
3.025
 20
6.3
 30
0.0
 40
0.25
  1
User.LPrecVal
100
AcDbAttribute
  2
PRECISION
 70
     1
  0
ATTRIB
  5
235
100
AcDbEntity
  8
DIMENSIONS
100
AcDbText
 10
3.025
 20
5.925
 30
0.0
 40
0.25
  1
User.LUnitsVal
100
AcDbAttribute
  2
UNITS
 70
     1
  0
ATTRIB
  5
236
100
AcDbEntity
  8
DIMENSIONS
100
AcDbText
 10
3.025
 20
5.55
 30
0.0
 40
0.25
  1
User.ShowUnitsVal
100
AcDbAttribute
  2
UNITSDISPLAY
 70
     1
  0
ATTRIB
  5
237
100
AcDbEntity
  8
DIMENSIONS
100
AcDbText
 10
3.025
 20
5.175
 30
0.0
 40
0.25
  1
Both
100
AcDbAttribute
  2
EXTENSIONLINES
 70
     1
  0
ATTRIB
  5
238
100
AcDbEntity
  8
DIMENSIONS
100
AcDbText
 10
3.025
 20
4.8
 30
0.0
 40
0.25
  1
0 deg.
100
AcDbAttribute
  2
ANGLE
 70
     1
  0
SEQEND
  5
239
100
AcDbEntity
  8
DIMENSIONS
  0
INSERT
  5
255
100
AcDbEntity
  8
DIMENSIONS
100
AcDbBlockReference
 66
     1
  2
HORIZONTAL_65
 10
8.775
 20
5.55
 30
0.0
  0
ATTRIB
  5
256
100
AcDbEntity
  8
DIMENSIONS
100
AcDbText
 10
8.775
 20
6.3
 30
0.0
 40
0.25
  1
User.LPrecVal
100
AcDbAttribute
  2
PRECISION
 70
     1
  0
ATTRIB
  5
257
100
AcDbEntity
  8
DIMENSIONS
100
AcDbText
 10
8.775
 20
5.925
 30
0.0
 40
0.25
  1
User.LUnitsVal
100
AcDbAttribute
  2
UNITS
 70
     1
  0
ATTRIB
  5
258
100
AcDbEntity
  8
DIMENSIONS
100
AcDbText
 10
8.775
 20
5.55
 30
0.0
 40
0.25
  1
User.ShowUnitsVal
100
AcDbAttribute
  2
UNITSDISPLAY
 70
     1
  0
ATTRIB
  5
259
100
AcDbEntity
  8
DIMENSIONS
100
AcDbText
 10
8.775
 20
5.175
 30
0.0
 40
0.25
  1
Both
100
AcDbAttribute
  2
EXTENSIONLINES
 70
     1
  0
ATTRIB
  5
25A
100
AcDbEntity
  8
DIMENSIONS
100
AcDbText
 10
8.775
 20
4.8
 30
0.0
 40
0.25
  1
0 deg.
100
AcDbAttribute
  2
ANGLE
 70
     1
  0
SEQEND
  5
25B
100
AcDbEntity
  8
DIMENSIONS
  0
INSERT
  5
277
100
AcDbEntity
  8
DIMENSIONS
100
AcDbBlockReference
 66
     1
  2
HORIZONTAL_66
 10
8.745
 20
6.9
 30
0.0
  0
ATTRIB
  5
278
100
AcDbEntity
  8
DIMENSIONS
100
AcDbText
 10
8.745
 20
7.65
 30
0.0
 40
0.25
  1
User.LPrecVal
100
AcDbAttribute
  2
PRECISION
 70
     1
  0
ATTRIB
  5
279
100
AcDbEntity
  8
DIMENSIONS
100
AcDbText
 10
8.745
 20
7.275
 30
0.0
 40
0.25
  1
User.LUnitsVal
100
AcDbAttribute
  2
UNITS
 70
     1
  0
ATTRIB
  5
27A
100
AcDbEntity
  8
DIMENSIONS
100
AcDbText
 10
8.745
 20
6.9
 30
0.0
 40
0.25
  1
User.ShowUnitsVal
100
AcDbAttribute
  2
UNITSDISPLAY
 70
     1
  0
ATTRIB
  5
27B
100
AcDbEntity
  8
DIMENSIONS
100
AcDbText
 10
8.745
 20
6.525
 30
0.0
 40
0.25
  1
Both
100
AcDbAttribute
  2
EXTENSIONLINES
 70
     1
  0
ATTRIB
  5
27C
100
AcDbEntity
  8
DIMENSIONS
100
AcDbText
 10
8.745
 20
6.15
 30
0.0
 40
0.25
  1
0 deg.
100
AcDbAttribute
  2
ANGLE
 70
     1
  0
SEQEND
  5
27D
100
AcDbEntity
  8
DIMENSIONS
  0
INSERT
  5
299
100
AcDbEntity
  8
DIMENSIONS
100
AcDbBlockReference
 66
     1
  2
HORIZONTAL_67
 10
9.775
 20
2.1
 30
0.0
  0
ATTRIB
  5
29A
100
AcDbEntity
  8
DIMENSIONS
100
AcDbText
 10
9.775
 20
2.85
 30
0.0
 40
0.25
  1
0.0000
100
AcDbAttribute
  2
PRECISION
 70
     1
  0
ATTRIB
  5
29B
100
AcDbEntity
  8
DIMENSIONS
100
AcDbText
 10
9.775
 20
2.475
 30
0.0
 40
0.25
  1
User.LUnitsVal
100
AcDbAttribute
  2
UNITS
 70
     1
  0
ATTRIB
  5
29C
100
AcDbEntity
  8
DIMENSIONS
100
AcDbText
 10
9.775
 20
2.1
 30
0.0
 40
0.25
  1
User.ShowUnitsVal
100
AcDbAttribute
  2
UNITSDISPLAY
 70
     1
  0
ATTRIB
  5
29D
100
AcDbEntity
  8
DIMENSIONS
100
AcDbText
 10
9.775
 20
1.725
 30
0.0
 40
0.25
  1
Both
100
AcDbAttribute
  2
EXTENSIONLINES
 70
     1
  0
ATTRIB
  5
29E
100
AcDbEntity
  8
DIMENSIONS
100
AcDbText
 10
9.775
 20
1.35
 30
0.0
 40
0.25
  1
0 deg.
100
AcDbAttribute
  2
ANGLE
 70
     1
  0
SEQEND
  5
29F
100
AcDbEntity
  8
DIMENSIONS
  0
INSERT
  5
2BB
100
AcDbEntity
  8
DIMENSIONS
100
AcDbBlockReference
 66
     1
  2
HORIZONTAL_68
 10
9.582143
 20
2.1
 30
0.0
  0
ATTRIB
  5
2BC
100
AcDbEntity
  8
DIMENSIONS
100
AcDbText
 10
9.582143
 20
2.85
 30
0.0
 40
0.25
  1
0.0000
100
AcDbAttribute
  2
PRECISION
 70
     1
  0
ATTRIB
  5
2BD
100
AcDbEntity
  8
DIMENSIONS
100
AcDbText
 10
9.582143
 20
2.475
 30
0.0
 40
0.25
  1
User.LUnitsVal
100
AcDbAttribute
  2
UNITS
 70
     1
  0
ATTRIB
  5
2BE
100
AcDbEntity
  8
DIMENSIONS
100
AcDbText
 10
9.582143
 20
2.1
 30
0.0
 40
0.25
  1
User.ShowUnitsVal
100
AcDbAttribute
  2
UNITSDISPLAY
 70
     1
  0
ATTRIB
  5
2BF
100
AcDbEntity
  8
DIMENSIONS
100
AcDbText
 10
9.582143
 20
1.725
 30
0.0
 40
0.25
  1
Both
100
AcDbAttribute
  2
EXTENSIONLINES
 70
     1
  0
ATTRIB
  5
2C0
100
AcDbEntity
  8
DIMENSIONS
100
AcDbText
 10
9.582143
 20
1.35
 30
0.0
 40
0.25
  1
0 deg.
100
AcDbAttribute
  2
ANGLE
 70
     1
  0
SEQEND
  5
2C1
100
AcDbEntity
  8
DIMENSIONS
  0
INSERT
  5
2DD
100
AcDbEntity
  8
DIMENSIONS
100
AcDbBlockReference
 66
     1
  2
VERTICAL_69
 10
6.075
 20
4.03
 30
0.0
  0
ATTRIB
  5
2DE
100
AcDbEntity
  8
DIMENSIONS
100
AcDbText
 10
6.075
 20
4.78
 30
0.0
 40
0.25
  1
User.LPrecVal
100
AcDbAttribute
  2
PRECISION
 70
     1
  0
ATTRIB
  5
2DF
100
AcDbEntity
  8
DIMENSIONS
100
AcDbText
 10
6.075
 20
4.405
 30
0.0
 40
0.25
  1
User.LUnitsVal
100
AcDbAttribute
  2
UNITS
 70
     1
  0
ATTRIB
  5
2E0
100
AcDbEntity
  8
DIMENSIONS
100
AcDbText
 10
6.075
 20
4.03
 30
0.0
 40
0.25
  1
User.ShowUnitsVal
100
AcDbAttribute
  2
UNITSDISPLAY
 70
     1
  0
ATTRIB
  5
2E1
100
AcDbEntity
  8
DIMENSIONS
100
AcDbText
 10
6.075
 20
3.655
 30
0.0
 40
0.25
  1
Both
100
AcDbAttribute
  2
EXTENSIONLINES
 70
     1
  0
ATTRIB
  5
2E2
100
AcDbEntity
  8
DIMENSIONS
100
AcDbText
 10
6.075
 20
3.28
 30
0.0
 40
0.25
  1
90 deg.
100
AcDbAttribute
  2
ANGLE
 70
     1
  0
SEQEND
  5
2E3
100
AcDbEntity
  8
DIMENSIONS
  0
INSERT
  5
2FF
100
AcDbEntity
  8
DIMENSIONS
100
AcDbBlockReference
 66
     1
  2
VERTICAL_70
 10
5.6
 20
3.28
 30
0.0
  0
ATTRIB
  5
300
100
AcDbEntity
  8
DIMENSIONS
100
AcDbText
 10
5.6
 20
4.03
 30
0.0
 40
0.25
  1
User.LPrecVal
100
AcDbAttribute
  2
PRECISION
 70
     1
  0
ATTRIB
  5
301
100
AcDbEntity
  8
DIMENSIONS
100
AcDbText
 10
5.6
 20
3.655
 30
0.0
 40
0.25
  1
User.LUnitsVal
100
AcDbAttribute
  2
UNITS
 70
     1
  0
ATTRIB
  5
302
100
AcDbEntity
  8
DIMENSIONS
100
AcDbText
 10
5.6
 20
3.28
 30
0.0
 40
0.25
  1
User.ShowUnitsVal
100
AcDbAttribute
  2
UNITSDISPLAY
 70
     1
  0
ATTRIB
  5
303
100
AcDbEntity
  8
DIMENSIONS
100
AcDbText
 10
5.6
 20
2.905
 30
0.0
 40
0.25
  1
Both
100
AcDbAttribute
  2
EXTENSIONLINES
 70
     1
  0
ATTRIB
  5
304
100
AcDbEntity
  8
DIMENSIONS
100
AcDbText
 10
5.6
 20
2.53
 30
0.0
 40
0.25
  1
90 deg.
100
AcDbAttribute
  2
ANGLE
 70
     1
  0
SEQEND
  5
305
100
AcDbEntity
  8
DIMENSIONS
  0
INSERT
  5
321
100
AcDbEntity
  8
DIMENSIONS
100
AcDbBlockReference
 66
     1
  2
HORIZONTAL_71
 10
1.7475
 20
6.45
 30
0.0
  0
ATTRIB
  5
322
100
AcDbEntity
  8
DIMENSIONS
100
AcDbText
 10
1.7475
 20
7.2
 30
0.0
 40
0.25
  1
User.LPrecVal
100
AcDbAttribute
  2
PRECISION
 70
     1
  0
ATTRIB
  5
323
100
AcDbEntity
  8
DIMENSIONS
100
AcDbText
 10
1.7475
 20
6.825
 30
0.0
 40
0.25
  1
User.LUnitsVal
100
AcDbAttribute
  2
UNITS
 70
     1
  0
ATTRIB
  5
324
100
AcDbEntity
  8
DIMENSIONS
100
AcDbText
 10
1.7475
 20
6.45
 30
0.0
 40
0.25
  1
User.ShowUnitsVal
100
AcDbAttribute
  2
UNITSDISPLAY
 70
     1
  0
ATTRIB
  5
325
100
AcDbEntity
  8
DIMENSIONS
100
AcDbText
 10
1.7475
 20
6.075
 30
0.0
 40
0.25
  1
Both
100
AcDbAttribute
  2
EXTENSIONLINES
 70
     1
  0
ATTRIB
  5
326
100
AcDbEntity
  8
DIMENSIONS
100
AcDbText
 10
1.7475
 20
5.7
 30
0.0
 40
0.25
  1
0 deg.
100
AcDbAttribute
  2
ANGLE
 70
     1
  0
SEQEND
  5
327
100
AcDbEntity
  8
DIMENSIONS
  0
INSERT
  5
347
100
AcDbEntity
  8
DIMENSIONS
100
AcDbBlockReference
 66
     1
  2
HORIZONTAL_72
 10
1.435
 20
6.45
 30
0.0
  0
ATTRIB
  5
348
100
AcDbEntity
  8
DIMENSIONS
100
AcDbText
 10
1.435
 20
7.2
 30
0.0
 40
0.25
  1
0.0000
100
AcDbAttribute
  2
PRECISION
 70
     1
  0
ATTRIB
  5
349
100
AcDbEntity
  8
DIMENSIONS
100
AcDbText
 10
1.435
 20
6.825
 30
0.0
 40
0.25
  1
User.LUnitsVal
100
AcDbAttribute
  2
UNITS
 70
     1
  0
ATTRIB
  5
34A
100
AcDbEntity
  8
DIMENSIONS
100
AcDbText
 10
1.435
 20
6.45
 30
0.0
 40
0.25
  1
User.ShowUnitsVal
100
AcDbAttribute
  2
UNITSDISPLAY
 70
     1
  0
ATTRIB
  5
34B
100
AcDbEntity
  8
DIMENSIONS
100
AcDbText
 10
1.435
 20
6.075
 30
0.0
 40
0.25
  1
Both
100
AcDbAttribute
  2
EXTENSIONLINES
 70
     1
  0
ATTRIB
  5
34C
100
AcDbEntity
  8
DIMENSIONS
100
AcDbText
 10
1.435
 20
5.7
 30
0.0
 40
0.25
  1
0 deg.
100
AcDbAttribute
  2
ANGLE
 70
     1
  0
SEQEND
  5
34D
100
AcDbEntity
  8
DIMENSIONS
  0
INSERT
  5
369
100
AcDbEntity
  8
DIMENSIONS
100
AcDbBlockReference
 66
     1
  2
VERTICAL_74
 10
1.423694
 20
3.120303
 30
0.0
  0
ATTRIB
  5
36A
100
AcDbEntity
  8
DIMENSIONS
100
AcDbText
 10
1.423694
 20
3.870303
 30
0.0
 40
0.25
  1
User.LPrecVal
100
AcDbAttribute
  2
PRECISION
 70
     1
  0
ATTRIB
  5
36B
100
AcDbEntity
  8
DIMENSIONS
100
AcDbText
 10
1.423694
 20
3.495303
 30
0.0
 40
0.25
  1
User.LUnitsVal
100
AcDbAttribute
  2
UNITS
 70
     1
  0
ATTRIB
  5
36C
100
AcDbEntity
  8
DIMENSIONS
100
AcDbText
 10
1.423694
 20
3.120303
 30
0.0
 40
0.25
  1
User.ShowUnitsVal
100
AcDbAttribute
  2
UNITSDISPLAY
 70
     1
  0
ATTRIB
  5
36D
100
AcDbEntity
  8
DIMENSIONS
100
AcDbText
 10
1.423694
 20
2.745303
 30
0.0
 40
0.25
  1
Both
100
AcDbAttribute
  2
EXTENSIONLINES
 70
     1
  0
ATTRIB
  5
36E
100
AcDbEntity
  8
DIMENSIONS
100
AcDbText
 10
1.423694
 20
2.370303
 30
0.0
 40
0.25
  1
90 deg.
100
AcDbAttribute
  2
ANGLE
 70
     1
  0
SEQEND
  5
36F
100
AcDbEntity
  8
DIMENSIONS
  0
INSERT
  5
385
100
AcDbEntity
  8
DIMENSIONS
100
AcDbBlockReference
  2
BOX_CALLOUT
 10
2.375
 20
7.35
 30
0.0
  0
INSERT
  5
399
100
AcDbEntity
  8
DIMENSIONS
100
AcDbBlockReference
  2
BOX_CALLOUT_76
 10
2.564754
 20
6.815885
 30
0.0
  0
INSERT
  5
3B5
100
AcDbEntity
  8
DIMENSIONS
100
AcDbBlockReference
 66
     1
  2
HORIZONTAL_77
 10
1.775
 20
2.1
 30
0.0
  0
ATTRIB
  5
3B6
100
AcDbEntity
  8
DIMENSIONS
100
AcDbText
 10
1.775
 20
2.85
 30
0.0
 40
0.25
  1
0.00
100
AcDbAttribute
  2
PRECISION
 70
     1
  0
ATTRIB
  5
3B7
100
AcDbEntity
  8
DIMENSIONS
100
AcDbText
 10
1.775
 20
2.475
 30
0.0
 40
0.25
  1
User.LUnitsVal
100
AcDbAttribute
  2
UNITS
 70
     1
  0
ATTRIB
  5
3B8
100
AcDbEntity
  8
DIMENSIONS
100
AcDbText
 10
1.775
 20
2.1
 30
0.0
 40
0.25
  1
User.ShowUnitsVal
100
AcDbAttribute
  2
UNITSDISPLAY
 70
     1
  0
ATTRIB
  5
3B9
100
AcDbEntity
  8
DIMENSIONS
100
AcDbText
 10
1.775
 20
1.725
 30
0.0
 40
0.25
  1
Both
100
AcDbAttribute
  2
EXTENSIONLINES
 70
     1
  0
ATTRIB
  5
3BA
100
AcDbEntity
  8
DIMENSIONS
100
AcDbText
 10
1.775
 20
1.35
 30
0.0
 40
0.25
  1
0 deg.
100
AcDbAttribute
  2
ANGLE
 70
     1
  0
SEQEND
  5
3BB
100
AcDbEntity
  8
DIMENSIONS
  0
INSERT
  5
3C3
100
AcDbEntity
  8
0
100
AcDbBlockReference
  2
SHEET_81
 10
2.7
 20
4.3
 30
0.0
  0
INSERT
  5
3D8
100
AcDbEntity
  8
DIMENSIONS
100
AcDbBlockReference
  2
BOX_CALLOUT_82
 10
5.0625
 20
6.5075
 30
0.0
  0
INSERT
  5
3EC
100
AcDbEntity
  8
DIMENSIONS
100
AcDbBlockReference
  2
BOX_CALLOUT_84
 10
6.85
 20
4.85
 30
0.0
  0
POLYLINE
  5
3ED
100
AcDbEntity
  8
0
  6
CONTINUOUS
 62
     7
100
AcDb2dPolyline
 66
     1
 10
0.0
 20
0.0
 30
0.0
  0
VERTEX
  5
3EE
100
AcDbEntity
  8
0
  6
CONTINUOUS
 62
     7
100
AcDbVertex
100
AcDb2dVertex
 10
6.6
 20
3.7
 30
0.0
  0
VERTEX
  5
3EF
100
AcDbEntity
  8
0
  6
CONTINUOUS
 62
     7
100
AcDbVertex
100
AcDb2dVertex
 10
6.66061
 20
3.76061
 30
0.0
  0
SEQEND
  5
3F0
100
AcDbEntity
  8
0
  6
CONTINUOUS
 62
     7
  0
POLYLINE
  5
3F1
100
AcDbEntity
  8
0
  6
CONTINUOUS
 62
     7
100
AcDb2dPolyline
 66
     1
 10
0.0
 20
0.0
 30
0.0
  0
VERTEX
  5
3F2
100
AcDbEntity
  8
0
  6
CONTINUOUS
 62
     7
100
AcDbVertex
100
AcDb2dVertex
 10
7.0
 20
4.9
 30
0.0
  0
VERTEX
  5
3F3
100
AcDbEntity
  8
0
  6
CONTINUOUS
 62
     7
100
AcDbVertex
100
AcDb2dVertex
 10
6.6
 20
3.7
 30
0.0
  0
SEQEND
  5
3F4
100
AcDbEntity
  8
0
  6
CONTINUOUS
 62
     7
  0
POLYLINE
  5
3F5
100
AcDbEntity
  8
0
  6
CONTINUOUS
 62
     7
100
AcDb2dPolyline
 66
     1
 10
0.0
 20
0.0
 30
0.0
  0
VERTEX
  5
3F6
100
AcDbEntity
  8
0
  6
CONTINUOUS
 62
     7
100
AcDbVertex
100
AcDb2dVertex
 10
2.7
 20
3.35
 30
0.0
  0
VERTEX
  5
3F7
100
AcDbEntity
  8
0
  6
CONTINUOUS
 62
     7
100
AcDbVertex
100
AcDb2dVertex
 10
2.745
 20
3.44
 30
0.0
  0
SEQEND
  5
3F8
100
AcDbEntity
  8
0
  6
CONTINUOUS
 62
     7
  0
POLYLINE
  5
3F9
100
AcDbEntity
  8
0
  6
CONTINUOUS
 62
     7
100
AcDb2dPolyline
 66
     1
 10
0.0
 20
0.0
 30
0.0
  0
VERTEX
  5
3FA
100
AcDbEntity
  8
0
  6
CONTINUOUS
 62
     7
100
AcDbVertex
100
AcDb2dVertex
 10
2.7
 20
4.0
 30
0.0
  0
VERTEX
  5
3FB
100
AcDbEntity
  8
0
  6
CONTINUOUS
 62
     7
100
AcDbVertex
100
AcDb2dVertex
 10
2.7
 20
3.35
 30
0.0
  0
SEQEND
  5
3FC
100
AcDbEntity
  8
0
  6
CONTINUOUS
 62
     7
  0
POLYLINE
  5
3FD
100
AcDbEntity
  8
0
  6
CONTINUOUS
 62
     7
100
AcDb2dPolyline
 66
     1
 10
0.0
 20
0.0
 30
0.0
  0
VERTEX
  5
3FE
100
AcDbEntity
  8
0
  6
CONTINUOUS
 62
     7
100
AcDbVertex
100
AcDb2dVertex
 10
2.7
 20
5.2
 30
0.0
  0
VERTEX
  5
3FF
100
AcDbEntity
  8
0
  6
CONTINUOUS
 62
     7
100
AcDbVertex
100
AcDb2dVertex
 10
2.655
 20
5.11
 30
0.0
  0
SEQEND
  5
400
100
AcDbEntity
  8
0
  6
CONTINUOUS
 62
     7
  0
POLYLINE
  5
401
100
AcDbEntity
  8
0
  6
CONTINUOUS
 62
     7
100
AcDb2dPolyline
 66
     1
 10
0.0
 20
0.0
 30
0.0
  0
VERTEX
  5
402
100
AcDbEntity
  8
0
  6
CONTINUOUS
 62
     7
100
AcDbVertex
100
AcDb2dVertex
 10
2.7
 20
4.6
 30
0.0
  0
VERTEX
  5
403
100
AcDbEntity
  8
0
  6
CONTINUOUS
 62
     7
100
AcDbVertex
100
AcDb2dVertex
 10
2.7
 20
5.2
 30
0.0
  0
SEQEND
  5
404
100
AcDbEntity
  8
0
  6
CONTINUOUS
 62
     7
  0
INSERT
  5
419
100
AcDbEntity
  8
DIMENSIONS
100
AcDbBlockReference
  2
BOX_CALLOUT_87
 10
8.453605
 20
2.530891
 30
0.0
  0
INSERT
  5
424
100
AcDbEntity
  8
ANNOTATIONS
100
AcDbBlockReference
  2
FILLET
 10
2.0625
 20
5.5725
 30
0.0
  0
INSERT
  5
42E
100
AcDbEntity
  8
ANNOTATIONS
100
AcDbBlockReference
  2
FILLET_212
 10
2.06
 20
2.99
 30
0.0
  0
INSERT
  5
438
100
AcDbEntity
  8
ANNOTATIONS
100
AcDbBlockReference
  2
FILLET_213
 10
9.465
 20
2.99
 30
0.0
  0
INSERT
  5
442
100
AcDbEntity
  8
ANNOTATIONS
100
AcDbBlockReference
  2
FILLET_214
 10
9.465
 20
5.57
 30
0.0
  0
INSERT
  5
4A0
100
AcDbEntity
  8
0
100
AcDbBlockReference
  2
SHEET_235
 10
1.62425
 20
4.275
 30
0.0
  0
INSERT
  5
4EC
100
AcDbEntity
  8
0
100
AcDbBlockReference
  2
SHEET_297
 10
9.442758
 20
4.927646
 30
0.0
  0
INSERT
  5
538
100
AcDbEntity
  8
0
100
AcDbBlockReference
  2
SHEET_298
 10
9.444742
 20
3.632354
 30
0.0
  0
INSERT
  5
558
100
AcDbEntity
  8
DIMENSIONS
100
AcDbBlockReference
 66
     1
  2
HORIZONTAL_73
 10
1.775
 20
1.788889
 30
0.0
  0
ATTRIB
  5
559
100
AcDbEntity
  8
DIMENSIONS
100
AcDbText
 10
1.775
 20
2.538889
 30
0.0
 40
0.25
  1
0.00
100
AcDbAttribute
  2
PRECISION
 70
     1
  0
ATTRIB
  5
55A
100
AcDbEntity
  8
DIMENSIONS
100
AcDbText
 10
1.775
 20
2.163889
 30
0.0
 40
0.25
  1
User.LUnitsVal
100
AcDbAttribute
  2
UNITS
 70
     1
  0
ATTRIB
  5
55B
100
AcDbEntity
  8
DIMENSIONS
100
AcDbText
 10
1.775
 20
1.788889
 30
0.0
 40
0.25
  1
User.ShowUnitsVal
100
AcDbAttribute
  2
UNITSDISPLAY
 70
     1
  0
ATTRIB
  5
55C
100
AcDbEntity
  8
DIMENSIONS
100
AcDbText
 10
1.775
 20
1.413889
 30
0.0
 40
0.25
  1
Both
100
AcDbAttribute
  2
EXTENSIONLINES
 70
     1
  0
ATTRIB
  5
55D
100
AcDbEntity
  8
DIMENSIONS
100
AcDbText
 10
1.775
 20
1.038889
 30
0.0
 40
0.25
  1
0 deg.
100
AcDbAttribute
  2
ANGLE
 70
     1
  0
SEQEND
  5
55E
100
AcDbEntity
  8
DIMENSIONS
  0
INSERT
  5
574
100
AcDbEntity
  8
DIMENSIONS
100
AcDbBlockReference
  2
BOX_CALLOUT_299
 10
3.425
 20
1.6
 30
0.0
  0
INSERT
  5
588
100
AcDbEntity
  8
DIMENSIONS
100
AcDbBlockReference
  2
BOX_CALLOUT_300
 10
8.688553
 20
5.073837
 30
0.0
  0
POLYLINE
  5
589
100
AcDbEntity
  8
0
  6
CONTINUOUS
 62
     7
100
AcDb2dPolyline
 66
     1
 10
0.0
 20
0.0
 30
0.0
  0
VERTEX
  5
58A
100
AcDbEntity
  8
0
  6
CONTINUOUS
 62
     7
100
AcDbVertex
100
AcDb2dVertex
 10
9.446083
 20
5.238326
 30
0.0
  0
VERTEX
  5
58B
100
AcDbEntity
  8
0
  6
CONTINUOUS
 62
     7
100
AcDbVertex
100
AcDb2dVertex
 10
9.361078
 20
5.249348
 30
0.0
  0
SEQEND
  5
58C
100
AcDbEntity
  8
0
  6
CONTINUOUS
 62
     7
  0
POLYLINE
  5
58D
100
AcDbEntity
  8
0
  6
CONTINUOUS
 62
     7
100
AcDb2dPolyline
 66
     1
 10
0.0
 20
0.0
 30
0.0
  0
VERTEX
  5
58E
100
AcDbEntity
  8
0
  6
CONTINUOUS
 62
     7
100
AcDbVertex
100
AcDb2dVertex
 10
8.480034
 20
4.902344
 30
0.0
  0
VERTEX
  5
58F
100
AcDbEntity
  8
0
  6
CONTINUOUS
 62
     7
100
AcDbVertex
100
AcDb2dVertex
 10
9.446083
 20
5.238326
 30
0.0
  0
SEQEND
  5
590
100
AcDbEntity
  8
0
  6
CONTINUOUS
 62
     7
  0
INSERT
  5
5BD
100
AcDbEntity
  8
0
100
AcDbBlockReference
  2
SHEET_311
 10
1.595
 20
4.25
 30
0.0
  0
POLYLINE
  5
5BE
100
AcDbEntity
  8
0
  6
CONTINUOUS
 62
     7
100
AcDb2dPolyline
 66
     1
 10
0.0
 20
0.0
 30
0.0
 70
     4
 75
     6
  0
VERTEX
  5
5BF
100
AcDbEntity
  8
0
  6
CONTINUOUS
 62
     7
100
AcDbVertex
100
AcDb2dVertex
 10
1.245
 20
4.4
 30
0.0
 70
    16
  0
VERTEX
  5
5C0
100
AcDbEntity
  8
0
  6
CONTINUOUS
 62
     7
100
AcDbVertex
100
AcDb2dVertex
 10
1.245
 20
4.4
 30
0.0
 70
     1
  0
VERTEX
  5
5C1
100
AcDbEntity
  8
0
  6
CONTINUOUS
 62
     7
100
AcDbVertex
100
AcDb2dVertex
 10
1.235036
 20
4.40096
 30
0.0
 70
     1
  0
VERTEX
  5
5C2
100
AcDbEntity
  8
0
  6
CONTINUOUS
 62
     7
100
AcDbVertex
100
AcDb2dVertex
 10
1.225043
 20
4.402038
 30
0.0
 70
     1
  0
VERTEX
  5
5C3
100
AcDbEntity
  8
0
  6
CONTINUOUS
 62
     7
100
AcDbVertex
100
AcDb2dVertex
 10
1.215028
 20
4.403233
 30
0.0
 70
     1
  0
VERTEX
  5
5C4
100
AcDbEntity
  8
0
  6
CONTINUOUS
 62
     7
100
AcDbVertex
100
AcDb2dVertex
 10
1.204999
 20
4.404545
 30
0.0
 70
     1
  0
VERTEX
  5
5C5
100
AcDbEntity
  8
0
  6
CONTINUOUS
 62
     7
100
AcDbVertex
100
AcDb2dVertex
 10
1.194961
 20
4.405973
 30
0.0
 70
     1
  0
VERTEX
  5
5C6
100
AcDbEntity
  8
0
  6
CONTINUOUS
 62
     7
100
AcDbVertex
100
AcDb2dVertex
 10
1.184922
 20
4.407517
 30
0.0
 70
     1
  0
VERTEX
  5
5C7
100
AcDbEntity
  8
0
  6
CONTINUOUS
 62
     7
100
AcDbVertex
100
AcDb2dVertex
 10
1.174887
 20
4.409175
 30
0.0
 70
     1
  0
VERTEX
  5
5C8
100
AcDbEntity
  8
0
  6
CONTINUOUS
 62
     7
100
AcDbVertex
100
AcDb2dVertex
 10
1.164865
 20
4.410949
 30
0.0
 70
     1
  0
VERTEX
  5
5C9
100
AcDbEntity
  8
0
  6
CONTINUOUS
 62
     7
100
AcDbVertex
100
AcDb2dVertex
 10
1.154861
 20
4.412837
 30
0.0
 70
     1
  0
VERTEX
  5
5CA
100
AcDbEntity
  8
0
  6
CONTINUOUS
 62
     7
100
AcDbVertex
100
AcDb2dVertex
 10
1.144882
 20
4.41484
 30
0.0
 70
     1
  0
VERTEX
  5
5CB
100
AcDbEntity
  8
0
  6
CONTINUOUS
 62
     7
100
AcDbVertex
100
AcDb2dVertex
 10
1.134934
 20
4.416958
 30
0.0
 70
     1
  0
VERTEX
  5
5CC
100
AcDbEntity
  8
0
  6
CONTINUOUS
 62
     7
100
AcDbVertex
100
AcDb2dVertex
 10
1.125025
 20
4.41919
 30
0.0
 70
     1
  0
VERTEX
  5
5CD
100
AcDbEntity
  8
0
  6
CONTINUOUS
 62
     7
100
AcDbVertex
100
AcDb2dVertex
 10
1.115161
 20
4.421535
 30
0.0
 70
     1
  0
VERTEX
  5
5CE
100
AcDbEntity
  8
0
  6
CONTINUOUS
 62
     7
100
AcDbVertex
100
AcDb2dVertex
 10
1.105349
 20
4.423992
 30
0.0
 70
     1
  0
VERTEX
  5
5CF
100
AcDbEntity
  8
0
  6
CONTINUOUS
 62
     7
100
AcDbVertex
100
AcDb2dVertex
 10
1.095596
 20
4.426557
 30
0.0
 70
     1
  0
VERTEX
  5
5D0
100
AcDbEntity
  8
0
  6
CONTINUOUS
 62
     7
100
AcDbVertex
100
AcDb2dVertex
 10
1.085908
 20
4.429231
 30
0.0
 70
     1
  0
VERTEX
  5
5D1
100
AcDbEntity
  8
0
  6
CONTINUOUS
 62
     7
100
AcDbVertex
100
AcDb2dVertex
 10
1.076294
 20
4.432011
 30
0.0
 70
     1
  0
VERTEX
  5
5D2
100
AcDbEntity
  8
0
  6
CONTINUOUS
 62
     7
100
AcDbVertex
100
AcDb2dVertex
 10
1.066759
 20
4.434897
 30
0.0
 70
     1
  0
VERTEX
  5
5D3
100
AcDbEntity
  8
0
  6
CONTINUOUS
 62
     7
100
AcDbVertex
100
AcDb2dVertex
 10
1.057309
 20
4.437894
 30
0.0
 70
     1
  0
VERTEX
  5
5D4
100
AcDbEntity
  8
0
  6
CONTINUOUS
 62
     7
100
AcDbVertex
100
AcDb2dVertex
 10
1.04795
 20
4.441008
 30
0.0
 70
     1
  0
VERTEX
  5
5D5
100
AcDbEntity
  8
0
  6
CONTINUOUS
 62
     7
100
AcDbVertex
100
AcDb2dVertex
 10
1.038686
 20
4.444245
 30
0.0
 70
     1
  0
VERTEX
  5
5D6
100
AcDbEntity
  8
0
  6
CONTINUOUS
 62
     7
100
AcDbVertex
100
AcDb2dVertex
 10
1.029523
 20
4.447611
 30
0.0
 70
     1
  0
VERTEX
  5
5D7
100
AcDbEntity
  8
0
  6
CONTINUOUS
 62
     7
100
AcDbVertex
100
AcDb2dVertex
 10
1.020466
 20
4.451111
 30
0.0
 70
     1
  0
VERTEX
  5
5D8
100
AcDbEntity
  8
0
  6
CONTINUOUS
 62
     7
100
AcDbVertex
100
AcDb2dVertex
 10
1.01152
 20
4.454754
 30
0.0
 70
     1
  0
VERTEX
  5
5D9
100
AcDbEntity
  8
0
  6
CONTINUOUS
 62
     7
100
AcDbVertex
100
AcDb2dVertex
 10
1.002687
 20
4.458552
 30
0.0
 70
     1
  0
VERTEX
  5
5DA
100
AcDbEntity
  8
0
  6
CONTINUOUS
 62
     7
100
AcDbVertex
100
AcDb2dVertex
 10
0.99397
 20
4.462517
 30
0.0
 70
     1
  0
VERTEX
  5
5DB
100
AcDbEntity
  8
0
  6
CONTINUOUS
 62
     7
100
AcDbVertex
100
AcDb2dVertex
 10
0.985374
 20
4.46666
 30
0.0
 70
     1
  0
VERTEX
  5
5DC
100
AcDbEntity
  8
0
  6
CONTINUOUS
 62
     7
100
AcDbVertex
100
AcDb2dVertex
 10
0.9769
 20
4.470992
 30
0.0
 70
     1
  0
VERTEX
  5
5DD
100
AcDbEntity
  8
0
  6
CONTINUOUS
 62
     7
100
AcDbVertex
100
AcDb2dVertex
 10
0.968553
 20
4.475527
 30
0.0
 70
     1
  0
VERTEX
  5
5DE
100
AcDbEntity
  8
0
  6
CONTINUOUS
 62
     7
100
AcDbVertex
100
AcDb2dVertex
 10
0.960337
 20
4.480278
 30
0.0
 70
     1
  0
VERTEX
  5
5DF
100
AcDbEntity
  8
0
  6
CONTINUOUS
 62
     7
100
AcDbVertex
100
AcDb2dVertex
 10
0.952257
 20
4.485261
 30
0.0
 70
     1
  0
VERTEX
  5
5E0
100
AcDbEntity
  8
0
  6
CONTINUOUS
 62
     7
100
AcDbVertex
100
AcDb2dVertex
 10
0.944319
 20
4.490492
 30
0.0
 70
     1
  0
VERTEX
  5
5E1
100
AcDbEntity
  8
0
  6
CONTINUOUS
 62
     7
100
AcDbVertex
100
AcDb2dVertex
 10
0.936526
 20
4.495987
 30
0.0
 70
     1
  0
VERTEX
  5
5E2
100
AcDbEntity
  8
0
  6
CONTINUOUS
 62
     7
100
AcDbVertex
100
AcDb2dVertex
 10
0.928886
 20
4.501762
 30
0.0
 70
     1
  0
VERTEX
  5
5E3
100
AcDbEntity
  8
0
  6
CONTINUOUS
 62
     7
100
AcDbVertex
100
AcDb2dVertex
 10
0.921397
 20
4.507817
 30
0.0
 70
     1
  0
VERTEX
  5
5E4
100
AcDbEntity
  8
0
  6
CONTINUOUS
 62
     7
100
AcDbVertex
100
AcDb2dVertex
 10
0.914057
 20
4.514136
 30
0.0
 70
     1
  0
VERTEX
  5
5E5
100
AcDbEntity
  8
0
  6
CONTINUOUS
 62
     7
100
AcDbVertex
100
AcDb2dVertex
 10
0.90686
 20
4.520699
 30
0.0
 70
     1
  0
VERTEX
  5
5E6
100
AcDbEntity
  8
0
  6
CONTINUOUS
 62
     7
100
AcDbVertex
100
AcDb2dVertex
 10
0.899801
 20
4.527488
 30
0.0
 70
     1
  0
VERTEX
  5
5E7
100
AcDbEntity
  8
0
  6
CONTINUOUS
 62
     7
100
AcDbVertex
100
AcDb2dVertex
 10
0.892875
 20
4.534483
 30
0.0
 70
     1
  0
VERTEX
  5
5E8
100
AcDbEntity
  8
0
  6
CONTINUOUS
 62
     7
100
AcDbVertex
100
AcDb2dVertex
 10
0.886076
 20
4.541663
 30
0.0
 70
     1
  0
VERTEX
  5
5E9
100
AcDbEntity
  8
0
  6
CONTINUOUS
 62
     7
100
AcDbVertex
100
AcDb2dVertex
 10
0.879397
 20
4.549001
 30
0.0
 70
     1
  0
VERTEX
  5
5EA
100
AcDbEntity
  8
0
  6
CONTINUOUS
 62
     7
100
AcDbVertex
100
AcDb2dVertex
 10
0.872829
 20
4.556462
 30
0.0
 70
     1
  0
VERTEX
  5
5EB
100
AcDbEntity
  8
0
  6
CONTINUOUS
 62
     7
100
AcDbVertex
100
AcDb2dVertex
 10
0.866362
 20
4.564012
 30
0.0
 70
     1
  0
VERTEX
  5
5EC
100
AcDbEntity
  8
0
  6
CONTINUOUS
 62
     7
100
AcDbVertex
100
AcDb2dVertex
 10
0.859988
 20
4.571618
 30
0.0
 70
     1
  0
VERTEX
  5
5ED
100
AcDbEntity
  8
0
  6
CONTINUOUS
 62
     7
100
AcDbVertex
100
AcDb2dVertex
 10
0.853698
 20
4.579247
 30
0.0
 70
     1
  0
VERTEX
  5
5EE
100
AcDbEntity
  8
0
  6
CONTINUOUS
 62
     7
100
AcDbVertex
100
AcDb2dVertex
 10
0.847482
 20
4.586865
 30
0.0
 70
     1
  0
VERTEX
  5
5EF
100
AcDbEntity
  8
0
  6
CONTINUOUS
 62
     7
100
AcDbVertex
100
AcDb2dVertex
 10
0.841332
 20
4.594441
 30
0.0
 70
     1
  0
VERTEX
  5
5F0
100
AcDbEntity
  8
0
  6
CONTINUOUS
 62
     7
100
AcDbVertex
100
AcDb2dVertex
 10
0.83524
 20
4.601946
 30
0.0
 70
     1
  0
VERTEX
  5
5F1
100
AcDbEntity
  8
0
  6
CONTINUOUS
 62
     7
100
AcDbVertex
100
AcDb2dVertex
 10
0.829198
 20
4.609349
 30
0.0
 70
     1
  0
VERTEX
  5
5F2
100
AcDbEntity
  8
0
  6
CONTINUOUS
 62
     7
100
AcDbVertex
100
AcDb2dVertex
 10
0.823198
 20
4.61662
 30
0.0
 70
     1
  0
VERTEX
  5
5F3
100
AcDbEntity
  8
0
  6
CONTINUOUS
 62
     7
100
AcDbVertex
100
AcDb2dVertex
 10
0.817232
 20
4.623728
 30
0.0
 70
     1
  0
VERTEX
  5
5F4
100
AcDbEntity
  8
0
  6
CONTINUOUS
 62
     7
100
AcDbVertex
100
AcDb2dVertex
 10
0.811291
 20
4.630643
 30
0.0
 70
     1
  0
VERTEX
  5
5F5
100
AcDbEntity
  8
0
  6
CONTINUOUS
 62
     7
100
AcDbVertex
100
AcDb2dVertex
 10
0.805367
 20
4.637335
 30
0.0
 70
     1
  0
VERTEX
  5
5F6
100
AcDbEntity
  8
0
  6
CONTINUOUS
 62
     7
100
AcDbVertex
100
AcDb2dVertex
 10
0.799452
 20
4.643773
 30
0.0
 70
     1
  0
VERTEX
  5
5F7
100
AcDbEntity
  8
0
  6
CONTINUOUS
 62
     7
100
AcDbVertex
100
AcDb2dVertex
 10
0.793538
 20
4.649926
 30
0.0
 70
     1
  0
VERTEX
  5
5F8
100
AcDbEntity
  8
0
  6
CONTINUOUS
 62
     7
100
AcDbVertex
100
AcDb2dVertex
 10
0.787616
 20
4.655764
 30
0.0
 70
     1
  0
VERTEX
  5
5F9
100
AcDbEntity
  8
0
  6
CONTINUOUS
 62
     7
100
AcDbVertex
100
AcDb2dVertex
 10
0.781678
 20
4.661256
 30
0.0
 70
     1
  0
VERTEX
  5
5FA
100
AcDbEntity
  8
0
  6
CONTINUOUS
 62
     7
100
AcDbVertex
100
AcDb2dVertex
 10
0.775716
 20
4.66637
 30
0.0
 70
     1
  0
VERTEX
  5
5FB
100
AcDbEntity
  8
0
  6
CONTINUOUS
 62
     7
100
AcDbVertex
100
AcDb2dVertex
 10
0.76972
 20
4.671073
 30
0.0
 70
     1
  0
VERTEX
  5
5FC
100
AcDbEntity
  8
0
  6
CONTINUOUS
 62
     7
100
AcDbVertex
100
AcDb2dVertex
 10
0.763682
 20
4.675331
 30
0.0
 70
     1
  0
VERTEX
  5
5FD
100
AcDbEntity
  8
0
  6
CONTINUOUS
 62
     7
100
AcDbVertex
100
AcDb2dVertex
 10
0.757593
 20
4.679111
 30
0.0
 70
     1
  0
VERTEX
  5
5FE
100
AcDbEntity
  8
0
  6
CONTINUOUS
 62
     7
100
AcDbVertex
100
AcDb2dVertex
 10
0.751444
 20
4.68238
 30
0.0
 70
     1
  0
VERTEX
  5
5FF
100
AcDbEntity
  8
0
  6
CONTINUOUS
 62
     7
100
AcDbVertex
100
AcDb2dVertex
 10
0.745228
 20
4.68511
 30
0.0
 70
     1
  0
VERTEX
  5
600
100
AcDbEntity
  8
0
  6
CONTINUOUS
 62
     7
100
AcDbVertex
100
AcDb2dVertex
 10
0.738937
 20
4.687277
 30
0.0
 70
     1
  0
VERTEX
  5
601
100
AcDbEntity
  8
0
  6
CONTINUOUS
 62
     7
100
AcDbVertex
100
AcDb2dVertex
 10
0.732565
 20
4.688859
 30
0.0
 70
     1
  0
VERTEX
  5
602
100
AcDbEntity
  8
0
  6
CONTINUOUS
 62
     7
100
AcDbVertex
100
AcDb2dVertex
 10
0.726106
 20
4.689834
 30
0.0
 70
     1
  0
VERTEX
  5
603
100
AcDbEntity
  8
0
  6
CONTINUOUS
 62
     7
100
AcDbVertex
100
AcDb2dVertex
 10
0.719554
 20
4.69018
 30
0.0
 70
     1
  0
VERTEX
  5
604
100
AcDbEntity
  8
0
  6
CONTINUOUS
 62
     7
100
AcDbVertex
100
AcDb2dVertex
 10
0.712902
 20
4.689877
 30
0.0
 70
     1
  0
VERTEX
  5
605
100
AcDbEntity
  8
0
  6
CONTINUOUS
 62
     7
100
AcDbVertex
100
AcDb2dVertex
 10
0.706152
 20
4.688936
 30
0.0
 70
     1
  0
VERTEX
  5
606
100
AcDbEntity
  8
0
  6
CONTINUOUS
 62
     7
100
AcDbVertex
100
AcDb2dVertex
 10
0.699309
 20
4.687386
 30
0.0
 70
     1
  0
VERTEX
  5
607
100
AcDbEntity
  8
0
  6
CONTINUOUS
 62
     7
100
AcDbVertex
100
AcDb2dVertex
 10
0.692377
 20
4.685255
 30
0.0
 70
     1
  0
VERTEX
  5
608
100
AcDbEntity
  8
0
  6
CONTINUOUS
 62
     7
100
AcDbVertex
100
AcDb2dVertex
 10
0.685362
 20
4.682571
 30
0.0
 70
     1
  0
VERTEX
  5
609
100
AcDbEntity
  8
0
  6
CONTINUOUS
 62
     7
100
AcDbVertex
100
AcDb2dVertex
 10
0.678268
 20
4.679363
 30
0.0
 70
     1
  0
VERTEX
  5
60A
100
AcDbEntity
  8
0
  6
CONTINUOUS
 62
     7
100
AcDbVertex
100
AcDb2dVertex
 10
0.6711
 20
4.675659
 30
0.0
 70
     1
  0
VERTEX
  5
60B
100
AcDbEntity
  8
0
  6
CONTINUOUS
 62
     7
100
AcDbVertex
100
AcDb2dVertex
 10
0.663862
 20
4.671481
 30
0.0
 70
     1
  0
VERTEX
  5
60C
100
AcDbEntity
  8
0
  6
CONTINUOUS
 62
     7
100
AcDbVertex
100
AcDb2dVertex
 10
0.656557
 20
4.666853
 30
0.0
 70
     1
  0
VERTEX
  5
60D
100
AcDbEntity
  8
0
  6
CONTINUOUS
 62
     7
100
AcDbVertex
100
AcDb2dVertex
 10
0.649188
 20
4.661797
 30
0.0
 70
     1
  0
VERTEX
  5
60E
100
AcDbEntity
  8
0
  6
CONTINUOUS
 62
     7
100
AcDbVertex
100
AcDb2dVertex
 10
0.641761
 20
4.656336
 30
0.0
 70
     1
  0
VERTEX
  5
60F
100
AcDbEntity
  8
0
  6
CONTINUOUS
 62
     7
100
AcDbVertex
100
AcDb2dVertex
 10
0.634278
 20
4.650493
 30
0.0
 70
     1
  0
VERTEX
  5
610
100
AcDbEntity
  8
0
  6
CONTINUOUS
 62
     7
100
AcDbVertex
100
AcDb2dVertex
 10
0.626742
 20
4.64429
 30
0.0
 70
     1
  0
VERTEX
  5
611
100
AcDbEntity
  8
0
  6
CONTINUOUS
 62
     7
100
AcDbVertex
100
AcDb2dVertex
 10
0.619159
 20
4.637753
 30
0.0
 70
     1
  0
VERTEX
  5
612
100
AcDbEntity
  8
0
  6
CONTINUOUS
 62
     7
100
AcDbVertex
100
AcDb2dVertex
 10
0.611531
 20
4.630905
 30
0.0
 70
     1
  0
VERTEX
  5
613
100
AcDbEntity
  8
0
  6
CONTINUOUS
 62
     7
100
AcDbVertex
100
AcDb2dVertex
 10
0.603864
 20
4.62377
 30
0.0
 70
     1
  0
VERTEX
  5
614
100
AcDbEntity
  8
0
  6
CONTINUOUS
 62
     7
100
AcDbVertex
100
AcDb2dVertex
 10
0.59616
 20
4.616374
 30
0.0
 70
     1
  0
VERTEX
  5
615
100
AcDbEntity
  8
0
  6
CONTINUOUS
 62
     7
100
AcDbVertex
100
AcDb2dVertex
 10
0.588424
 20
4.608739
 30
0.0
 70
     1
  0
VERTEX
  5
616
100
AcDbEntity
  8
0
  6
CONTINUOUS
 62
     7
100
AcDbVertex
100
AcDb2dVertex
 10
0.580659
 20
4.600891
 30
0.0
 70
     1
  0
VERTEX
  5
617
100
AcDbEntity
  8
0
  6
CONTINUOUS
 62
     7
100
AcDbVertex
100
AcDb2dVertex
 10
0.57287
 20
4.592852
 30
0.0
 70
     1
  0
VERTEX
  5
618
100
AcDbEntity
  8
0
  6
CONTINUOUS
 62
     7
100
AcDbVertex
100
AcDb2dVertex
 10
0.56506
 20
4.584647
 30
0.0
 70
     1
  0
VERTEX
  5
619
100
AcDbEntity
  8
0
  6
CONTINUOUS
 62
     7
100
AcDbVertex
100
AcDb2dVertex
 10
0.557234
 20
4.5763
 30
0.0
 70
     1
  0
VERTEX
  5
61A
100
AcDbEntity
  8
0
  6
CONTINUOUS
 62
     7
100
AcDbVertex
100
AcDb2dVertex
 10
0.549394
 20
4.567833
 30
0.0
 70
     1
  0
VERTEX
  5
61B
100
AcDbEntity
  8
0
  6
CONTINUOUS
 62
     7
100
AcDbVertex
100
AcDb2dVertex
 10
0.541546
 20
4.559272
 30
0.0
 70
     1
  0
VERTEX
  5
61C
100
AcDbEntity
  8
0
  6
CONTINUOUS
 62
     7
100
AcDbVertex
100
AcDb2dVertex
 10
0.533692
 20
4.550641
 30
0.0
 70
     1
  0
VERTEX
  5
61D
100
AcDbEntity
  8
0
  6
CONTINUOUS
 62
     7
100
AcDbVertex
100
AcDb2dVertex
 10
0.525837
 20
4.541962
 30
0.0
 70
     1
  0
VERTEX
  5
61E
100
AcDbEntity
  8
0
  6
CONTINUOUS
 62
     7
100
AcDbVertex
100
AcDb2dVertex
 10
0.517985
 20
4.53326
 30
0.0
 70
     1
  0
VERTEX
  5
61F
100
AcDbEntity
  8
0
  6
CONTINUOUS
 62
     7
100
AcDbVertex
100
AcDb2dVertex
 10
0.510139
 20
4.524559
 30
0.0
 70
     1
  0
VERTEX
  5
620
100
AcDbEntity
  8
0
  6
CONTINUOUS
 62
     7
100
AcDbVertex
100
AcDb2dVertex
 10
0.502304
 20
4.515883
 30
0.0
 70
     1
  0
VERTEX
  5
621
100
AcDbEntity
  8
0
  6
CONTINUOUS
 62
     7
100
AcDbVertex
100
AcDb2dVertex
 10
0.494483
 20
4.507255
 30
0.0
 70
     1
  0
VERTEX
  5
622
100
AcDbEntity
  8
0
  6
CONTINUOUS
 62
     7
100
AcDbVertex
100
AcDb2dVertex
 10
0.48668
 20
4.4987
 30
0.0
 70
     1
  0
VERTEX
  5
623
100
AcDbEntity
  8
0
  6
CONTINUOUS
 62
     7
100
AcDbVertex
100
AcDb2dVertex
 10
0.478899
 20
4.490242
 30
0.0
 70
     1
  0
VERTEX
  5
624
100
AcDbEntity
  8
0
  6
CONTINUOUS
 62
     7
100
AcDbVertex
100
AcDb2dVertex
 10
0.471144
 20
4.481905
 30
0.0
 70
     1
  0
VERTEX
  5
625
100
AcDbEntity
  8
0
  6
CONTINUOUS
 62
     7
100
AcDbVertex
100
AcDb2dVertex
 10
0.463419
 20
4.473711
 30
0.0
 70
     1
  0
VERTEX
  5
626
100
AcDbEntity
  8
0
  6
CONTINUOUS
 62
     7
100
AcDbVertex
100
AcDb2dVertex
 10
0.455728
 20
4.465686
 30
0.0
 70
     1
  0
VERTEX
  5
627
100
AcDbEntity
  8
0
  6
CONTINUOUS
 62
     7
100
AcDbVertex
100
AcDb2dVertex
 10
0.448074
 20
4.457853
 30
0.0
 70
     1
  0
VERTEX
  5
628
100
AcDbEntity
  8
0
  6
CONTINUOUS
 62
     7
100
AcDbVertex
100
AcDb2dVertex
 10
0.440462
 20
4.450237
 30
0.0
 70
     1
  0
VERTEX
  5
629
100
AcDbEntity
  8
0
  6
CONTINUOUS
 62
     7
100
AcDbVertex
100
AcDb2dVertex
 10
0.432895
 20
4.44286
 30
0.0
 70
     1
  0
VERTEX
  5
62A
100
AcDbEntity
  8
0
  6
CONTINUOUS
 62
     7
100
AcDbVertex
100
AcDb2dVertex
 10
0.425377
 20
4.435747
 30
0.0
 70
     1
  0
VERTEX
  5
62B
100
AcDbEntity
  8
0
  6
CONTINUOUS
 62
     7
100
AcDbVertex
100
AcDb2dVertex
 10
0.417913
 20
4.428922
 30
0.0
 70
     1
  0
VERTEX
  5
62C
100
AcDbEntity
  8
0
  6
CONTINUOUS
 62
     7
100
AcDbVertex
100
AcDb2dVertex
 10
0.410505
 20
4.422409
 30
0.0
 70
     1
  0
VERTEX
  5
62D
100
AcDbEntity
  8
0
  6
CONTINUOUS
 62
     7
100
AcDbVertex
100
AcDb2dVertex
 10
0.403159
 20
4.416232
 30
0.0
 70
     1
  0
VERTEX
  5
62E
100
AcDbEntity
  8
0
  6
CONTINUOUS
 62
     7
100
AcDbVertex
100
AcDb2dVertex
 10
0.395877
 20
4.410414
 30
0.0
 70
     1
  0
VERTEX
  5
62F
100
AcDbEntity
  8
0
  6
CONTINUOUS
 62
     7
100
AcDbVertex
100
AcDb2dVertex
 10
0.388664
 20
4.404979
 30
0.0
 70
     1
  0
VERTEX
  5
630
100
AcDbEntity
  8
0
  6
CONTINUOUS
 62
     7
100
AcDbVertex
100
AcDb2dVertex
 10
0.381523
 20
4.399952
 30
0.0
 70
     1
  0
VERTEX
  5
631
100
AcDbEntity
  8
0
  6
CONTINUOUS
 62
     7
100
AcDbVertex
100
AcDb2dVertex
 10
0.374459
 20
4.395357
 30
0.0
 70
     1
  0
VERTEX
  5
632
100
AcDbEntity
  8
0
  6
CONTINUOUS
 62
     7
100
AcDbVertex
100
AcDb2dVertex
 10
0.367475
 20
4.391216
 30
0.0
 70
     1
  0
VERTEX
  5
633
100
AcDbEntity
  8
0
  6
CONTINUOUS
 62
     7
100
AcDbVertex
100
AcDb2dVertex
 10
0.360576
 20
4.387555
 30
0.0
 70
     1
  0
VERTEX
  5
634
100
AcDbEntity
  8
0
  6
CONTINUOUS
 62
     7
100
AcDbVertex
100
AcDb2dVertex
 10
0.353764
 20
4.384397
 30
0.0
 70
     1
  0
VERTEX
  5
635
100
AcDbEntity
  8
0
  6
CONTINUOUS
 62
     7
100
AcDbVertex
100
AcDb2dVertex
 10
0.347045
 20
4.381766
 30
0.0
 70
     1
  0
VERTEX
  5
636
100
AcDbEntity
  8
0
  6
CONTINUOUS
 62
     7
100
AcDbVertex
100
AcDb2dVertex
 10
0.340421
 20
4.379686
 30
0.0
 70
     1
  0
VERTEX
  5
637
100
AcDbEntity
  8
0
  6
CONTINUOUS
 62
     7
100
AcDbVertex
100
AcDb2dVertex
 10
0.333897
 20
4.37818
 30
0.0
 70
     1
  0
VERTEX
  5
638
100
AcDbEntity
  8
0
  6
CONTINUOUS
 62
     7
100
AcDbVertex
100
AcDb2dVertex
 10
0.327477
 20
4.377273
 30
0.0
 70
     1
  0
VERTEX
  5
639
100
AcDbEntity
  8
0
  6
CONTINUOUS
 62
     7
100
AcDbVertex
100
AcDb2dVertex
 10
0.321164
 20
4.376989
 30
0.0
 70
     1
  0
VERTEX
  5
63A
100
AcDbEntity
  8
0
  6
CONTINUOUS
 62
     7
100
AcDbVertex
100
AcDb2dVertex
 10
0.314963
 20
4.377352
 30
0.0
 70
     1
  0
VERTEX
  5
63B
100
AcDbEntity
  8
0
  6
CONTINUOUS
 62
     7
100
AcDbVertex
100
AcDb2dVertex
 10
0.308877
 20
4.378384
 30
0.0
 70
     1
  0
VERTEX
  5
63C
100
AcDbEntity
  8
0
  6
CONTINUOUS
 62
     7
100
AcDbVertex
100
AcDb2dVertex
 10
0.30291
 20
4.380112
 30
0.0
 70
     1
  0
VERTEX
  5
63D
100
AcDbEntity
  8
0
  6
CONTINUOUS
 62
     7
100
AcDbVertex
100
AcDb2dVertex
 10
0.297067
 20
4.382557
 30
0.0
 70
     1
  0
VERTEX
  5
63E
100
AcDbEntity
  8
0
  6
CONTINUOUS
 62
     7
100
AcDbVertex
100
AcDb2dVertex
 10
0.29135
 20
4.385745
 30
0.0
 70
     1
  0
VERTEX
  5
63F
100
AcDbEntity
  8
0
  6
CONTINUOUS
 62
     7
100
AcDbVertex
100
AcDb2dVertex
 10
0.285764
 20
4.389698
 30
0.0
 70
     1
  0
VERTEX
  5
640
100
AcDbEntity
  8
0
  6
CONTINUOUS
 62
     7
100
AcDbVertex
100
AcDb2dVertex
 10
0.280313
 20
4.394442
 30
0.0
 70
     1
  0
VERTEX
  5
641
100
AcDbEntity
  8
0
  6
CONTINUOUS
 62
     7
100
AcDbVertex
100
AcDb2dVertex
 10
0.275
 20
4.4
 30
0.0
 70
     1
  0
VERTEX
  5
642
100
AcDbEntity
  8
0
  6
CONTINUOUS
 62
     7
100
AcDbVertex
100
AcDb2dVertex
 10
0.26983
 20
4.406396
 30
0.0
 70
     1
  0
VERTEX
  5
643
100
AcDbEntity
  8
0
  6
CONTINUOUS
 62
     7
100
AcDbVertex
100
AcDb2dVertex
 10
1.226402
 20
4.401684
 30
0.0
 70
    16
  0
VERTEX
  5
644
100
AcDbEntity
  8
0
  6
CONTINUOUS
 62
     7
100
AcDbVertex
100
AcDb2dVertex
 10
1.188836
 20
4.406296
 30
0.0
 70
    16
  0
VERTEX
  5
645
100
AcDbEntity
  8
0
  6
CONTINUOUS
 62
     7
100
AcDbVertex
100
AcDb2dVertex
 10
1.132569
 20
4.416834
 30
0.0
 70
    16
  0
VERTEX
  5
646
100
AcDbEntity
  8
0
  6
CONTINUOUS
 62
     7
100
AcDbVertex
100
AcDb2dVertex
 10
1.077548
 20
4.430972
 30
0.0
 70
    16
  0
VERTEX
  5
647
100
AcDbEntity
  8
0
  6
CONTINUOUS
 62
     7
100
AcDbVertex
100
AcDb2dVertex
 10
1.025002
 20
4.448398
 30
0.0
 70
    16
  0
VERTEX
  5
648
100
AcDbEntity
  8
0
  6
CONTINUOUS
 62
     7
100
AcDbVertex
100
AcDb2dVertex
 10
0.975873
 20
4.470128
 30
0.0
 70
    16
  0
VERTEX
  5
649
100
AcDbEntity
  8
0
  6
CONTINUOUS
 62
     7
100
AcDbVertex
100
AcDb2dVertex
 10
0.930714
 20
4.498203
 30
0.0
 70
    16
  0
VERTEX
  5
64A
100
AcDbEntity
  8
0
  6
CONTINUOUS
 62
     7
100
AcDbVertex
100
AcDb2dVertex
 10
0.890425
 20
4.535385
 30
0.0
 70
    16
  0
VERTEX
  5
64B
100
AcDbEntity
  8
0
  6
CONTINUOUS
 62
     7
100
AcDbVertex
100
AcDb2dVertex
 10
0.854118
 20
4.578289
 30
0.0
 70
    16
  0
VERTEX
  5
64C
100
AcDbEntity
  8
0
  6
CONTINUOUS
 62
     7
100
AcDbVertex
100
AcDb2dVertex
 10
0.820185
 20
4.62097
 30
0.0
 70
    16
  0
VERTEX
  5
64D
100
AcDbEntity
  8
0
  6
CONTINUOUS
 62
     7
100
AcDbVertex
100
AcDb2dVertex
 10
0.787187
 20
4.658081
 30
0.0
 70
    16
  0
VERTEX
  5
64E
100
AcDbEntity
  8
0
  6
CONTINUOUS
 62
     7
100
AcDbVertex
100
AcDb2dVertex
 10
0.753669
 20
4.68424
 30
0.0
 70
    16
  0
VERTEX
  5
64F
100
AcDbEntity
  8
0
  6
CONTINUOUS
 62
     7
100
AcDbVertex
100
AcDb2dVertex
 10
0.718074
 20
4.693607
 30
0.0
 70
    16
  0
VERTEX
  5
650
100
AcDbEntity
  8
0
  6
CONTINUOUS
 62
     7
100
AcDbVertex
100
AcDb2dVertex
 10
0.679277
 20
4.682272
 30
0.0
 70
    16
  0
VERTEX
  5
651
100
AcDbEntity
  8
0
  6
CONTINUOUS
 62
     7
100
AcDbVertex
100
AcDb2dVertex
 10
0.638146
 20
4.655277
 30
0.0
 70
    16
  0
VERTEX
  5
652
100
AcDbEntity
  8
0
  6
CONTINUOUS
 62
     7
100
AcDbVertex
100
AcDb2dVertex
 10
0.595319
 20
4.616621
 30
0.0
 70
    16
  0
VERTEX
  5
653
100
AcDbEntity
  8
0
  6
CONTINUOUS
 62
     7
100
AcDbVertex
100
AcDb2dVertex
 10
0.551493
 20
4.570582
 30
0.0
 70
    16
  0
VERTEX
  5
654
100
AcDbEntity
  8
0
  6
CONTINUOUS
 62
     7
100
AcDbVertex
100
AcDb2dVertex
 10
0.507351
 20
4.521363
 30
0.0
 70
    16
  0
VERTEX
  5
655
100
AcDbEntity
  8
0
  6
CONTINUOUS
 62
     7
100
AcDbVertex
100
AcDb2dVertex
 10
0.463578
 20
4.473187
 30
0.0
 70
    16
  0
VERTEX
  5
656
100
AcDbEntity
  8
0
  6
CONTINUOUS
 62
     7
100
AcDbVertex
100
AcDb2dVertex
 10
0.420861
 20
4.430273
 30
0.0
 70
    16
  0
VERTEX
  5
657
100
AcDbEntity
  8
0
  6
CONTINUOUS
 62
     7
100
AcDbVertex
100
AcDb2dVertex
 10
0.379885
 20
4.396838
 30
0.0
 70
    16
  0
VERTEX
  5
658
100
AcDbEntity
  8
0
  6
CONTINUOUS
 62
     7
100
AcDbVertex
100
AcDb2dVertex
 10
0.341334
 20
4.377103
 30
0.0
 70
    16
  0
VERTEX
  5
659
100
AcDbEntity
  8
0
  6
CONTINUOUS
 62
     7
100
AcDbVertex
100
AcDb2dVertex
 10
0.305895
 20
4.375287
 30
0.0
 70
    16
  0
VERTEX
  5
65A
100
AcDbEntity
  8
0
  6
CONTINUOUS
 62
     7
100
AcDbVertex
100
AcDb2dVertex
 10
0.2848
 20
4.388834
 30
0.0
 70
    16
  0
VERTEX
  5
65B
100
AcDbEntity
  8
0
  6
CONTINUOUS
 62
     7
100
AcDbVertex
100
AcDb2dVertex
 10
0.275
 20
4.4
 30
0.0
 70
    16
  0
SEQEND
  5
65C
100
AcDbEntity
  8
0
  6
CONTINUOUS
 62
     7
  0
POLYLINE
  5
65D
100
AcDbEntity
  8
0
  6
CONTINUOUS
 62
     7
100
AcDb2dPolyline
 66
     1
 10
0.0
 20
0.0
 30
0.0
 70
     4
 75
     6
  0
VERTEX
  5
65E
100
AcDbEntity
  8
0
  6
CONTINUOUS
 62
     7
100
AcDbVertex
100
AcDb2dVertex
 10
1.245
 20
4.1
 30
0.0
 70
    16
  0
VERTEX
  5
65F
100
AcDbEntity
  8
0
  6
CONTINUOUS
 62
     7
100
AcDbVertex
100
AcDb2dVertex
 10
1.245
 20
4.1
 30
0.0
 70
     1
  0
VERTEX
  5
660
100
AcDbEntity
  8
0
  6
CONTINUOUS
 62
     7
100
AcDbVertex
100
AcDb2dVertex
 10
1.235036
 20
4.10096
 30
0.0
 70
     1
  0
VERTEX
  5
661
100
AcDbEntity
  8
0
  6
CONTINUOUS
 62
     7
100
AcDbVertex
100
AcDb2dVertex
 10
1.225043
 20
4.102038
 30
0.0
 70
     1
  0
VERTEX
  5
662
100
AcDbEntity
  8
0
  6
CONTINUOUS
 62
     7
100
AcDbVertex
100
AcDb2dVertex
 10
1.215028
 20
4.103233
 30
0.0
 70
     1
  0
VERTEX
  5
663
100
AcDbEntity
  8
0
  6
CONTINUOUS
 62
     7
100
AcDbVertex
100
AcDb2dVertex
 10
1.204999
 20
4.104545
 30
0.0
 70
     1
  0
VERTEX
  5
664
100
AcDbEntity
  8
0
  6
CONTINUOUS
 62
     7
100
AcDbVertex
100
AcDb2dVertex
 10
1.194961
 20
4.105973
 30
0.0
 70
     1
  0
VERTEX
  5
665
100
AcDbEntity
  8
0
  6
CONTINUOUS
 62
     7
100
AcDbVertex
100
AcDb2dVertex
 10
1.184922
 20
4.107517
 30
0.0
 70
     1
  0
VERTEX
  5
666
100
AcDbEntity
  8
0
  6
CONTINUOUS
 62
     7
100
AcDbVertex
100
AcDb2dVertex
 10
1.174887
 20
4.109175
 30
0.0
 70
     1
  0
VERTEX
  5
667
100
AcDbEntity
  8
0
  6
CONTINUOUS
 62
     7
100
AcDbVertex
100
AcDb2dVertex
 10
1.164865
 20
4.110949
 30
0.0
 70
     1
  0
VERTEX
  5
668
100
AcDbEntity
  8
0
  6
CONTINUOUS
 62
     7
100
AcDbVertex
100
AcDb2dVertex
 10
1.154861
 20
4.112837
 30
0.0
 70
     1
  0
VERTEX
  5
669
100
AcDbEntity
  8
0
  6
CONTINUOUS
 62
     7
100
AcDbVertex
100
AcDb2dVertex
 10
1.144882
 20
4.11484
 30
0.0
 70
     1
  0
VERTEX
  5
66A
100
AcDbEntity
  8
0
  6
CONTINUOUS
 62
     7
100
AcDbVertex
100
AcDb2dVertex
 10
1.134934
 20
4.116958
 30
0.0
 70
     1
  0
VERTEX
  5
66B
100
AcDbEntity
  8
0
  6
CONTINUOUS
 62
     7
100
AcDbVertex
100
AcDb2dVertex
 10
1.125025
 20
4.11919
 30
0.0
 70
     1
  0
VERTEX
  5
66C
100
AcDbEntity
  8
0
  6
CONTINUOUS
 62
     7
100
AcDbVertex
100
AcDb2dVertex
 10
1.115161
 20
4.121535
 30
0.0
 70
     1
  0
VERTEX
  5
66D
100
AcDbEntity
  8
0
  6
CONTINUOUS
 62
     7
100
AcDbVertex
100
AcDb2dVertex
 10
1.105349
 20
4.123992
 30
0.0
 70
     1
  0
VERTEX
  5
66E
100
AcDbEntity
  8
0
  6
CONTINUOUS
 62
     7
100
AcDbVertex
100
AcDb2dVertex
 10
1.095596
 20
4.126557
 30
0.0
 70
     1
  0
VERTEX
  5
66F
100
AcDbEntity
  8
0
  6
CONTINUOUS
 62
     7
100
AcDbVertex
100
AcDb2dVertex
 10
1.085908
 20
4.129231
 30
0.0
 70
     1
  0
VERTEX
  5
670
100
AcDbEntity
  8
0
  6
CONTINUOUS
 62
     7
100
AcDbVertex
100
AcDb2dVertex
 10
1.076294
 20
4.132011
 30
0.0
 70
     1
  0
VERTEX
  5
671
100
AcDbEntity
  8
0
  6
CONTINUOUS
 62
     7
100
AcDbVertex
100
AcDb2dVertex
 10
1.066759
 20
4.134897
 30
0.0
 70
     1
  0
VERTEX
  5
672
100
AcDbEntity
  8
0
  6
CONTINUOUS
 62
     7
100
AcDbVertex
100
AcDb2dVertex
 10
1.057309
 20
4.137894
 30
0.0
 70
     1
  0
VERTEX
  5
673
100
AcDbEntity
  8
0
  6
CONTINUOUS
 62
     7
100
AcDbVertex
100
AcDb2dVertex
 10
1.04795
 20
4.141008
 30
0.0
 70
     1
  0
VERTEX
  5
674
100
AcDbEntity
  8
0
  6
CONTINUOUS
 62
     7
100
AcDbVertex
100
AcDb2dVertex
 10
1.038686
 20
4.144245
 30
0.0
 70
     1
  0
VERTEX
  5
675
100
AcDbEntity
  8
0
  6
CONTINUOUS
 62
     7
100
AcDbVertex
100
AcDb2dVertex
 10
1.029523
 20
4.147611
 30
0.0
 70
     1
  0
VERTEX
  5
676
100
AcDbEntity
  8
0
  6
CONTINUOUS
 62
     7
100
AcDbVertex
100
AcDb2dVertex
 10
1.020466
 20
4.151111
 30
0.0
 70
     1
  0
VERTEX
  5
677
100
AcDbEntity
  8
0
  6
CONTINUOUS
 62
     7
100
AcDbVertex
100
AcDb2dVertex
 10
1.01152
 20
4.154754
 30
0.0
 70
     1
  0
VERTEX
  5
678
100
AcDbEntity
  8
0
  6
CONTINUOUS
 62
     7
100
AcDbVertex
100
AcDb2dVertex
 10
1.002687
 20
4.158552
 30
0.0
 70
     1
  0
VERTEX
  5
679
100
AcDbEntity
  8
0
  6
CONTINUOUS
 62
     7
100
AcDbVertex
100
AcDb2dVertex
 10
0.99397
 20
4.162517
 30
0.0
 70
     1
  0
VERTEX
  5
67A
100
AcDbEntity
  8
0
  6
CONTINUOUS
 62
     7
100
AcDbVertex
100
AcDb2dVertex
 10
0.985374
 20
4.16666
 30
0.0
 70
     1
  0
VERTEX
  5
67B
100
AcDbEntity
  8
0
  6
CONTINUOUS
 62
     7
100
AcDbVertex
100
AcDb2dVertex
 10
0.9769
 20
4.170992
 30
0.0
 70
     1
  0
VERTEX
  5
67C
100
AcDbEntity
  8
0
  6
CONTINUOUS
 62
     7
100
AcDbVertex
100
AcDb2dVertex
 10
0.968553
 20
4.175527
 30
0.0
 70
     1
  0
VERTEX
  5
67D
100
AcDbEntity
  8
0
  6
CONTINUOUS
 62
     7
100
AcDbVertex
100
AcDb2dVertex
 10
0.960337
 20
4.180278
 30
0.0
 70
     1
  0
VERTEX
  5
67E
100
AcDbEntity
  8
0
  6
CONTINUOUS
 62
     7
100
AcDbVertex
100
AcDb2dVertex
 10
0.952257
 20
4.185261
 30
0.0
 70
     1
  0
VERTEX
  5
67F
100
AcDbEntity
  8
0
  6
CONTINUOUS
 62
     7
100
AcDbVertex
100
AcDb2dVertex
 10
0.944319
 20
4.190492
 30
0.0
 70
     1
  0
VERTEX
  5
680
100
AcDbEntity
  8
0
  6
CONTINUOUS
 62
     7
100
AcDbVertex
100
AcDb2dVertex
 10
0.936526
 20
4.195987
 30
0.0
 70
     1
  0
VERTEX
  5
681
100
AcDbEntity
  8
0
  6
CONTINUOUS
 62
     7
100
AcDbVertex
100
AcDb2dVertex
 10
0.928886
 20
4.201762
 30
0.0
 70
     1
  0
VERTEX
  5
682
100
AcDbEntity
  8
0
  6
CONTINUOUS
 62
     7
100
AcDbVertex
100
AcDb2dVertex
 10
0.921397
 20
4.207817
 30
0.0
 70
     1
  0
VERTEX
  5
683
100
AcDbEntity
  8
0
  6
CONTINUOUS
 62
     7
100
AcDbVertex
100
AcDb2dVertex
 10
0.914057
 20
4.214136
 30
0.0
 70
     1
  0
VERTEX
  5
684
100
AcDbEntity
  8
0
  6
CONTINUOUS
 62
     7
100
AcDbVertex
100
AcDb2dVertex
 10
0.90686
 20
4.220699
 30
0.0
 70
     1
  0
VERTEX
  5
685
100
AcDbEntity
  8
0
  6
CONTINUOUS
 62
     7
100
AcDbVertex
100
AcDb2dVertex
 10
0.899801
 20
4.227488
 30
0.0
 70
     1
  0
VERTEX
  5
686
100
AcDbEntity
  8
0
  6
CONTINUOUS
 62
     7
100
AcDbVertex
100
AcDb2dVertex
 10
0.892875
 20
4.234483
 30
0.0
 70
     1
  0
VERTEX
  5
687
100
AcDbEntity
  8
0
  6
CONTINUOUS
 62
     7
100
AcDbVertex
100
AcDb2dVertex
 10
0.886076
 20
4.241663
 30
0.0
 70
     1
  0
VERTEX
  5
688
100
AcDbEntity
  8
0
  6
CONTINUOUS
 62
     7
100
AcDbVertex
100
AcDb2dVertex
 10
0.879397
 20
4.249001
 30
0.0
 70
     1
  0
VERTEX
  5
689
100
AcDbEntity
  8
0
  6
CONTINUOUS
 62
     7
100
AcDbVertex
100
AcDb2dVertex
 10
0.872829
 20
4.256462
 30
0.0
 70
     1
  0
VERTEX
  5
68A
100
AcDbEntity
  8
0
  6
CONTINUOUS
 62
     7
100
AcDbVertex
100
AcDb2dVertex
 10
0.866362
 20
4.264012
 30
0.0
 70
     1
  0
VERTEX
  5
68B
100
AcDbEntity
  8
0
  6
CONTINUOUS
 62
     7
100
AcDbVertex
100
AcDb2dVertex
 10
0.859988
 20
4.271618
 30
0.0
 70
     1
  0
VERTEX
  5
68C
100
AcDbEntity
  8
0
  6
CONTINUOUS
 62
     7
100
AcDbVertex
100
AcDb2dVertex
 10
0.853698
 20
4.279247
 30
0.0
 70
     1
  0
VERTEX
  5
68D
100
AcDbEntity
  8
0
  6
CONTINUOUS
 62
     7
100
AcDbVertex
100
AcDb2dVertex
 10
0.847482
 20
4.286865
 30
0.0
 70
     1
  0
VERTEX
  5
68E
100
AcDbEntity
  8
0
  6
CONTINUOUS
 62
     7
100
AcDbVertex
100
AcDb2dVertex
 10
0.841332
 20
4.294441
 30
0.0
 70
     1
  0
VERTEX
  5
68F
100
AcDbEntity
  8
0
  6
CONTINUOUS
 62
     7
100
AcDbVertex
100
AcDb2dVertex
 10
0.83524
 20
4.301946
 30
0.0
 70
     1
  0
VERTEX
  5
690
100
AcDbEntity
  8
0
  6
CONTINUOUS
 62
     7
100
AcDbVertex
100
AcDb2dVertex
 10
0.829198
 20
4.309349
 30
0.0
 70
     1
  0
VERTEX
  5
691
100
AcDbEntity
  8
0
  6
CONTINUOUS
 62
     7
100
AcDbVertex
100
AcDb2dVertex
 10
0.823198
 20
4.31662
 30
0.0
 70
     1
  0
VERTEX
  5
692
100
AcDbEntity
  8
0
  6
CONTINUOUS
 62
     7
100
AcDbVertex
100
AcDb2dVertex
 10
0.817232
 20
4.323728
 30
0.0
 70
     1
  0
VERTEX
  5
693
100
AcDbEntity
  8
0
  6
CONTINUOUS
 62
     7
100
AcDbVertex
100
AcDb2dVertex
 10
0.811291
 20
4.330643
 30
0.0
 70
     1
  0
VERTEX
  5
694
100
AcDbEntity
  8
0
  6
CONTINUOUS
 62
     7
100
AcDbVertex
100
AcDb2dVertex
 10
0.805367
 20
4.337335
 30
0.0
 70
     1
  0
VERTEX
  5
695
100
AcDbEntity
  8
0
  6
CONTINUOUS
 62
     7
100
AcDbVertex
100
AcDb2dVertex
 10
0.799452
 20
4.343773
 30
0.0
 70
     1
  0
VERTEX
  5
696
100
AcDbEntity
  8
0
  6
CONTINUOUS
 62
     7
100
AcDbVertex
100
AcDb2dVertex
 10
0.793538
 20
4.349926
 30
0.0
 70
     1
  0
VERTEX
  5
697
100
AcDbEntity
  8
0
  6
CONTINUOUS
 62
     7
100
AcDbVertex
100
AcDb2dVertex
 10
0.787616
 20
4.355764
 30
0.0
 70
     1
  0
VERTEX
  5
698
100
AcDbEntity
  8
0
  6
CONTINUOUS
 62
     7
100
AcDbVertex
100
AcDb2dVertex
 10
0.781678
 20
4.361256
 30
0.0
 70
     1
  0
VERTEX
  5
699
100
AcDbEntity
  8
0
  6
CONTINUOUS
 62
     7
100
AcDbVertex
100
AcDb2dVertex
 10
0.775716
 20
4.36637
 30
0.0
 70
     1
  0
VERTEX
  5
69A
100
AcDbEntity
  8
0
  6
CONTINUOUS
 62
     7
100
AcDbVertex
100
AcDb2dVertex
 10
0.76972
 20
4.371073
 30
0.0
 70
     1
  0
VERTEX
  5
69B
100
AcDbEntity
  8
0
  6
CONTINUOUS
 62
     7
100
AcDbVertex
100
AcDb2dVertex
 10
0.763682
 20
4.375331
 30
0.0
 70
     1
  0
VERTEX
  5
69C
100
AcDbEntity
  8
0
  6
CONTINUOUS
 62
     7
100
AcDbVertex
100
AcDb2dVertex
 10
0.757593
 20
4.379111
 30
0.0
 70
     1
  0
VERTEX
  5
69D
100
AcDbEntity
  8
0
  6
CONTINUOUS
 62
     7
100
AcDbVertex
100
AcDb2dVertex
 10
0.751444
 20
4.38238
 30
0.0
 70
     1
  0
VERTEX
  5
69E
100
AcDbEntity
  8
0
  6
CONTINUOUS
 62
     7
100
AcDbVertex
100
AcDb2dVertex
 10
0.745228
 20
4.38511
 30
0.0
 70
     1
  0
VERTEX
  5
69F
100
AcDbEntity
  8
0
  6
CONTINUOUS
 62
     7
100
AcDbVertex
100
AcDb2dVertex
 10
0.738937
 20
4.387277
 30
0.0
 70
     1
  0
VERTEX
  5
6A0
100
AcDbEntity
  8
0
  6
CONTINUOUS
 62
     7
100
AcDbVertex
100
AcDb2dVertex
 10
0.732565
 20
4.388859
 30
0.0
 70
     1
  0
VERTEX
  5
6A1
100
AcDbEntity
  8
0
  6
CONTINUOUS
 62
     7
100
AcDbVertex
100
AcDb2dVertex
 10
0.726106
 20
4.389834
 30
0.0
 70
     1
  0
VERTEX
  5
6A2
100
AcDbEntity
  8
0
  6
CONTINUOUS
 62
     7
100
AcDbVertex
100
AcDb2dVertex
 10
0.719554
 20
4.39018
 30
0.0
 70
     1
  0
VERTEX
  5
6A3
100
AcDbEntity
  8
0
  6
CONTINUOUS
 62
     7
100
AcDbVertex
100
AcDb2dVertex
 10
0.712902
 20
4.389877
 30
0.0
 70
     1
  0
VERTEX
  5
6A4
100
AcDbEntity
  8
0
  6
CONTINUOUS
 62
     7
100
AcDbVertex
100
AcDb2dVertex
 10
0.706152
 20
4.388936
 30
0.0
 70
     1
  0
VERTEX
  5
6A5
100
AcDbEntity
  8
0
  6
CONTINUOUS
 62
     7
100
AcDbVertex
100
AcDb2dVertex
 10
0.699309
 20
4.387386
 30
0.0
 70
     1
  0
VERTEX
  5
6A6
100
AcDbEntity
  8
0
  6
CONTINUOUS
 62
     7
100
AcDbVertex
100
AcDb2dVertex
 10
0.692377
 20
4.385255
 30
0.0
 70
     1
  0
VERTEX
  5
6A7
100
AcDbEntity
  8
0
  6
CONTINUOUS
 62
     7
100
AcDbVertex
100
AcDb2dVertex
 10
0.685362
 20
4.382571
 30
0.0
 70
     1
  0
VERTEX
  5
6A8
100
AcDbEntity
  8
0
  6
CONTINUOUS
 62
     7
100
AcDbVertex
100
AcDb2dVertex
 10
0.678268
 20
4.379363
 30
0.0
 70
     1
  0
VERTEX
  5
6A9
100
AcDbEntity
  8
0
  6
CONTINUOUS
 62
     7
100
AcDbVertex
100
AcDb2dVertex
 10
0.6711
 20
4.375659
 30
0.0
 70
     1
  0
VERTEX
  5
6AA
100
AcDbEntity
  8
0
  6
CONTINUOUS
 62
     7
100
AcDbVertex
100
AcDb2dVertex
 10
0.663862
 20
4.371481
 30
0.0
 70
     1
  0
VERTEX
  5
6AB
100
AcDbEntity
  8
0
  6
CONTINUOUS
 62
     7
100
AcDbVertex
100
AcDb2dVertex
 10
0.656557
 20
4.366853
 30
0.0
 70
     1
  0
VERTEX
  5
6AC
100
AcDbEntity
  8
0
  6
CONTINUOUS
 62
     7
100
AcDbVertex
100
AcDb2dVertex
 10
0.649188
 20
4.361797
 30
0.0
 70
     1
  0
VERTEX
  5
6AD
100
AcDbEntity
  8
0
  6
CONTINUOUS
 62
     7
100
AcDbVertex
100
AcDb2dVertex
 10
0.641761
 20
4.356336
 30
0.0
 70
     1
  0
VERTEX
  5
6AE
100
AcDbEntity
  8
0
  6
CONTINUOUS
 62
     7
100
AcDbVertex
100
AcDb2dVertex
 10
0.634278
 20
4.350493
 30
0.0
 70
     1
  0
VERTEX
  5
6AF
100
AcDbEntity
  8
0
  6
CONTINUOUS
 62
     7
100
AcDbVertex
100
AcDb2dVertex
 10
0.626742
 20
4.34429
 30
0.0
 70
     1
  0
VERTEX
  5
6B0
100
AcDbEntity
  8
0
  6
CONTINUOUS
 62
     7
100
AcDbVertex
100
AcDb2dVertex
 10
0.619159
 20
4.337753
 30
0.0
 70
     1
  0
VERTEX
  5
6B1
100
AcDbEntity
  8
0
  6
CONTINUOUS
 62
     7
100
AcDbVertex
100
AcDb2dVertex
 10
0.611531
 20
4.330905
 30
0.0
 70
     1
  0
VERTEX
  5
6B2
100
AcDbEntity
  8
0
  6
CONTINUOUS
 62
     7
100
AcDbVertex
100
AcDb2dVertex
 10
0.603864
 20
4.32377
 30
0.0
 70
     1
  0
VERTEX
  5
6B3
100
AcDbEntity
  8
0
  6
CONTINUOUS
 62
     7
100
AcDbVertex
100
AcDb2dVertex
 10
0.59616
 20
4.316374
 30
0.0
 70
     1
  0
VERTEX
  5
6B4
100
AcDbEntity
  8
0
  6
CONTINUOUS
 62
     7
100
AcDbVertex
100
AcDb2dVertex
 10
0.588424
 20
4.308739
 30
0.0
 70
     1
  0
VERTEX
  5
6B5
100
AcDbEntity
  8
0
  6
CONTINUOUS
 62
     7
100
AcDbVertex
100
AcDb2dVertex
 10
0.580659
 20
4.300891
 30
0.0
 70
     1
  0
VERTEX
  5
6B6
100
AcDbEntity
  8
0
  6
CONTINUOUS
 62
     7
100
AcDbVertex
100
AcDb2dVertex
 10
0.57287
 20
4.292852
 30
0.0
 70
     1
  0
VERTEX
  5
6B7
100
AcDbEntity
  8
0
  6
CONTINUOUS
 62
     7
100
AcDbVertex
100
AcDb2dVertex
 10
0.56506
 20
4.284647
 30
0.0
 70
     1
  0
VERTEX
  5
6B8
100
AcDbEntity
  8
0
  6
CONTINUOUS
 62
     7
100
AcDbVertex
100
AcDb2dVertex
 10
0.557234
 20
4.2763
 30
0.0
 70
     1
  0
VERTEX
  5
6B9
100
AcDbEntity
  8
0
  6
CONTINUOUS
 62
     7
100
AcDbVertex
100
AcDb2dVertex
 10
0.549394
 20
4.267833
 30
0.0
 70
     1
  0
VERTEX
  5
6BA
100
AcDbEntity
  8
0
  6
CONTINUOUS
 62
     7
100
AcDbVertex
100
AcDb2dVertex
 10
0.541546
 20
4.259272
 30
0.0
 70
     1
  0
VERTEX
  5
6BB
100
AcDbEntity
  8
0
  6
CONTINUOUS
 62
     7
100
AcDbVertex
100
AcDb2dVertex
 10
0.533692
 20
4.250641
 30
0.0
 70
     1
  0
VERTEX
  5
6BC
100
AcDbEntity
  8
0
  6
CONTINUOUS
 62
     7
100
AcDbVertex
100
AcDb2dVertex
 10
0.525837
 20
4.241962
 30
0.0
 70
     1
  0
VERTEX
  5
6BD
100
AcDbEntity
  8
0
  6
CONTINUOUS
 62
     7
100
AcDbVertex
100
AcDb2dVertex
 10
0.517985
 20
4.23326
 30
0.0
 70
     1
  0
VERTEX
  5
6BE
100
AcDbEntity
  8
0
  6
CONTINUOUS
 62
     7
100
AcDbVertex
100
AcDb2dVertex
 10
0.510139
 20
4.224559
 30
0.0
 70
     1
  0
VERTEX
  5
6BF
100
AcDbEntity
  8
0
  6
CONTINUOUS
 62
     7
100
AcDbVertex
100
AcDb2dVertex
 10
0.502304
 20
4.215883
 30
0.0
 70
     1
  0
VERTEX
  5
6C0
100
AcDbEntity
  8
0
  6
CONTINUOUS
 62
     7
100
AcDbVertex
100
AcDb2dVertex
 10
0.494483
 20
4.207255
 30
0.0
 70
     1
  0
VERTEX
  5
6C1
100
AcDbEntity
  8
0
  6
CONTINUOUS
 62
     7
100
AcDbVertex
100
AcDb2dVertex
 10
0.48668
 20
4.1987
 30
0.0
 70
     1
  0
VERTEX
  5
6C2
100
AcDbEntity
  8
0
  6
CONTINUOUS
 62
     7
100
AcDbVertex
100
AcDb2dVertex
 10
0.478899
 20
4.190242
 30
0.0
 70
     1
  0
VERTEX
  5
6C3
100
AcDbEntity
  8
0
  6
CONTINUOUS
 62
     7
100
AcDbVertex
100
AcDb2dVertex
 10
0.471144
 20
4.181905
 30
0.0
 70
     1
  0
VERTEX
  5
6C4
100
AcDbEntity
  8
0
  6
CONTINUOUS
 62
     7
100
AcDbVertex
100
AcDb2dVertex
 10
0.463419
 20
4.173711
 30
0.0
 70
     1
  0
VERTEX
  5
6C5
100
AcDbEntity
  8
0
  6
CONTINUOUS
 62
     7
100
AcDbVertex
100
AcDb2dVertex
 10
0.455728
 20
4.165686
 30
0.0
 70
     1
  0
VERTEX
  5
6C6
100
AcDbEntity
  8
0
  6
CONTINUOUS
 62
     7
100
AcDbVertex
100
AcDb2dVertex
 10
0.448074
 20
4.157853
 30
0.0
 70
     1
  0
VERTEX
  5
6C7
100
AcDbEntity
  8
0
  6
CONTINUOUS
 62
     7
100
AcDbVertex
100
AcDb2dVertex
 10
0.440462
 20
4.150237
 30
0.0
 70
     1
  0
VERTEX
  5
6C8
100
AcDbEntity
  8
0
  6
CONTINUOUS
 62
     7
100
AcDbVertex
100
AcDb2dVertex
 10
0.432895
 20
4.14286
 30
0.0
 70
     1
  0
VERTEX
  5
6C9
100
AcDbEntity
  8
0
  6
CONTINUOUS
 62
     7
100
AcDbVertex
100
AcDb2dVertex
 10
0.425377
 20
4.135747
 30
0.0
 70
     1
  0
VERTEX
  5
6CA
100
AcDbEntity
  8
0
  6
CONTINUOUS
 62
     7
100
AcDbVertex
100
AcDb2dVertex
 10
0.417913
 20
4.128922
 30
0.0
 70
     1
  0
VERTEX
  5
6CB
100
AcDbEntity
  8
0
  6
CONTINUOUS
 62
     7
100
AcDbVertex
100
AcDb2dVertex
 10
0.410505
 20
4.122409
 30
0.0
 70
     1
  0
VERTEX
  5
6CC
100
AcDbEntity
  8
0
  6
CONTINUOUS
 62
     7
100
AcDbVertex
100
AcDb2dVertex
 10
0.403159
 20
4.116232
 30
0.0
 70
     1
  0
VERTEX
  5
6CD
100
AcDbEntity
  8
0
  6
CONTINUOUS
 62
     7
100
AcDbVertex
100
AcDb2dVertex
 10
0.395877
 20
4.110414
 30
0.0
 70
     1
  0
VERTEX
  5
6CE
100
AcDbEntity
  8
0
  6
CONTINUOUS
 62
     7
100
AcDbVertex
100
AcDb2dVertex
 10
0.388664
 20
4.104979
 30
0.0
 70
     1
  0
VERTEX
  5
6CF
100
AcDbEntity
  8
0
  6
CONTINUOUS
 62
     7
100
AcDbVertex
100
AcDb2dVertex
 10
0.381523
 20
4.099952
 30
0.0
 70
     1
  0
VERTEX
  5
6D0
100
AcDbEntity
  8
0
  6
CONTINUOUS
 62
     7
100
AcDbVertex
100
AcDb2dVertex
 10
0.374459
 20
4.095357
 30
0.0
 70
     1
  0
VERTEX
  5
6D1
100
AcDbEntity
  8
0
  6
CONTINUOUS
 62
     7
100
AcDbVertex
100
AcDb2dVertex
 10
0.367475
 20
4.091216
 30
0.0
 70
     1
  0
VERTEX
  5
6D2
100
AcDbEntity
  8
0
  6
CONTINUOUS
 62
     7
100
AcDbVertex
100
AcDb2dVertex
 10
0.360576
 20
4.087555
 30
0.0
 70
     1
  0
VERTEX
  5
6D3
100
AcDbEntity
  8
0
  6
CONTINUOUS
 62
     7
100
AcDbVertex
100
AcDb2dVertex
 10
0.353764
 20
4.084397
 30
0.0
 70
     1
  0
VERTEX
  5
6D4
100
AcDbEntity
  8
0
  6
CONTINUOUS
 62
     7
100
AcDbVertex
100
AcDb2dVertex
 10
0.347045
 20
4.081766
 30
0.0
 70
     1
  0
VERTEX
  5
6D5
100
AcDbEntity
  8
0
  6
CONTINUOUS
 62
     7
100
AcDbVertex
100
AcDb2dVertex
 10
0.340421
 20
4.079686
 30
0.0
 70
     1
  0
VERTEX
  5
6D6
100
AcDbEntity
  8
0
  6
CONTINUOUS
 62
     7
100
AcDbVertex
100
AcDb2dVertex
 10
0.333897
 20
4.07818
 30
0.0
 70
     1
  0
VERTEX
  5
6D7
100
AcDbEntity
  8
0
  6
CONTINUOUS
 62
     7
100
AcDbVertex
100
AcDb2dVertex
 10
0.327477
 20
4.077273
 30
0.0
 70
     1
  0
VERTEX
  5
6D8
100
AcDbEntity
  8
0
  6
CONTINUOUS
 62
     7
100
AcDbVertex
100
AcDb2dVertex
 10
0.321164
 20
4.076989
 30
0.0
 70
     1
  0
VERTEX
  5
6D9
100
AcDbEntity
  8
0
  6
CONTINUOUS
 62
     7
100
AcDbVertex
100
AcDb2dVertex
 10
0.314963
 20
4.077352
 30
0.0
 70
     1
  0
VERTEX
  5
6DA
100
AcDbEntity
  8
0
  6
CONTINUOUS
 62
     7
100
AcDbVertex
100
AcDb2dVertex
 10
0.308877
 20
4.078384
 30
0.0
 70
     1
  0
VERTEX
  5
6DB
100
AcDbEntity
  8
0
  6
CONTINUOUS
 62
     7
100
AcDbVertex
100
AcDb2dVertex
 10
0.30291
 20
4.080112
 30
0.0
 70
     1
  0
VERTEX
  5
6DC
100
AcDbEntity
  8
0
  6
CONTINUOUS
 62
     7
100
AcDbVertex
100
AcDb2dVertex
 10
0.297067
 20
4.082557
 30
0.0
 70
     1
  0
VERTEX
  5
6DD
100
AcDbEntity
  8
0
  6
CONTINUOUS
 62
     7
100
AcDbVertex
100
AcDb2dVertex
 10
0.29135
 20
4.085745
 30
0.0
 70
     1
  0
VERTEX
  5
6DE
100
AcDbEntity
  8
0
  6
CONTINUOUS
 62
     7
100
AcDbVertex
100
AcDb2dVertex
 10
0.285764
 20
4.089698
 30
0.0
 70
     1
  0
VERTEX
  5
6DF
100
AcDbEntity
  8
0
  6
CONTINUOUS
 62
     7
100
AcDbVertex
100
AcDb2dVertex
 10
0.280313
 20
4.094442
 30
0.0
 70
     1
  0
VERTEX
  5
6E0
100
AcDbEntity
  8
0
  6
CONTINUOUS
 62
     7
100
AcDbVertex
100
AcDb2dVertex
 10
0.275
 20
4.1
 30
0.0
 70
     1
  0
VERTEX
  5
6E1
100
AcDbEntity
  8
0
  6
CONTINUOUS
 62
     7
100
AcDbVertex
100
AcDb2dVertex
 10
0.26983
 20
4.106396
 30
0.0
 70
     1
  0
VERTEX
  5
6E2
100
AcDbEntity
  8
0
  6
CONTINUOUS
 62
     7
100
AcDbVertex
100
AcDb2dVertex
 10
1.226402
 20
4.101684
 30
0.0
 70
    16
  0
VERTEX
  5
6E3
100
AcDbEntity
  8
0
  6
CONTINUOUS
 62
     7
100
AcDbVertex
100
AcDb2dVertex
 10
1.188836
 20
4.106296
 30
0.0
 70
    16
  0
VERTEX
  5
6E4
100
AcDbEntity
  8
0
  6
CONTINUOUS
 62
     7
100
AcDbVertex
100
AcDb2dVertex
 10
1.132569
 20
4.116834
 30
0.0
 70
    16
  0
VERTEX
  5
6E5
100
AcDbEntity
  8
0
  6
CONTINUOUS
 62
     7
100
AcDbVertex
100
AcDb2dVertex
 10
1.077548
 20
4.130972
 30
0.0
 70
    16
  0
VERTEX
  5
6E6
100
AcDbEntity
  8
0
  6
CONTINUOUS
 62
     7
100
AcDbVertex
100
AcDb2dVertex
 10
1.025002
 20
4.148398
 30
0.0
 70
    16
  0
VERTEX
  5
6E7
100
AcDbEntity
  8
0
  6
CONTINUOUS
 62
     7
100
AcDbVertex
100
AcDb2dVertex
 10
0.975873
 20
4.170128
 30
0.0
 70
    16
  0
VERTEX
  5
6E8
100
AcDbEntity
  8
0
  6
CONTINUOUS
 62
     7
100
AcDbVertex
100
AcDb2dVertex
 10
0.930714
 20
4.198203
 30
0.0
 70
    16
  0
VERTEX
  5
6E9
100
AcDbEntity
  8
0
  6
CONTINUOUS
 62
     7
100
AcDbVertex
100
AcDb2dVertex
 10
0.890425
 20
4.235385
 30
0.0
 70
    16
  0
VERTEX
  5
6EA
100
AcDbEntity
  8
0
  6
CONTINUOUS
 62
     7
100
AcDbVertex
100
AcDb2dVertex
 10
0.854118
 20
4.278289
 30
0.0
 70
    16
  0
VERTEX
  5
6EB
100
AcDbEntity
  8
0
  6
CONTINUOUS
 62
     7
100
AcDbVertex
100
AcDb2dVertex
 10
0.820185
 20
4.32097
 30
0.0
 70
    16
  0
VERTEX
  5
6EC
100
AcDbEntity
  8
0
  6
CONTINUOUS
 62
     7
100
AcDbVertex
100
AcDb2dVertex
 10
0.787187
 20
4.358081
 30
0.0
 70
    16
  0
VERTEX
  5
6ED
100
AcDbEntity
  8
0
  6
CONTINUOUS
 62
     7
100
AcDbVertex
100
AcDb2dVertex
 10
0.753669
 20
4.38424
 30
0.0
 70
    16
  0
VERTEX
  5
6EE
100
AcDbEntity
  8
0
  6
CONTINUOUS
 62
     7
100
AcDbVertex
100
AcDb2dVertex
 10
0.718074
 20
4.393607
 30
0.0
 70
    16
  0
VERTEX
  5
6EF
100
AcDbEntity
  8
0
  6
CONTINUOUS
 62
     7
100
AcDbVertex
100
AcDb2dVertex
 10
0.679277
 20
4.382272
 30
0.0
 70
    16
  0
VERTEX
  5
6F0
100
AcDbEntity
  8
0
  6
CONTINUOUS
 62
     7
100
AcDbVertex
100
AcDb2dVertex
 10
0.638146
 20
4.355277
 30
0.0
 70
    16
  0
VERTEX
  5
6F1
100
AcDbEntity
  8
0
  6
CONTINUOUS
 62
     7
100
AcDbVertex
100
AcDb2dVertex
 10
0.595319
 20
4.316621
 30
0.0
 70
    16
  0
VERTEX
  5
6F2
100
AcDbEntity
  8
0
  6
CONTINUOUS
 62
     7
100
AcDbVertex
100
AcDb2dVertex
 10
0.551493
 20
4.270582
 30
0.0
 70
    16
  0
VERTEX
  5
6F3
100
AcDbEntity
  8
0
  6
CONTINUOUS
 62
     7
100
AcDbVertex
100
AcDb2dVertex
 10
0.507351
 20
4.221363
 30
0.0
 70
    16
  0
VERTEX
  5
6F4
100
AcDbEntity
  8
0
  6
CONTINUOUS
 62
     7
100
AcDbVertex
100
AcDb2dVertex
 10
0.463578
 20
4.173187
 30
0.0
 70
    16
  0
VERTEX
  5
6F5
100
AcDbEntity
  8
0
  6
CONTINUOUS
 62
     7
100
AcDbVertex
100
AcDb2dVertex
 10
0.420861
 20
4.130273
 30
0.0
 70
    16
  0
VERTEX
  5
6F6
100
AcDbEntity
  8
0
  6
CONTINUOUS
 62
     7
100
AcDbVertex
100
AcDb2dVertex
 10
0.379885
 20
4.096838
 30
0.0
 70
    16
  0
VERTEX
  5
6F7
100
AcDbEntity
  8
0
  6
CONTINUOUS
 62
     7
100
AcDbVertex
100
AcDb2dVertex
 10
0.341334
 20
4.077103
 30
0.0
 70
    16
  0
VERTEX
  5
6F8
100
AcDbEntity
  8
0
  6
CONTINUOUS
 62
     7
100
AcDbVertex
100
AcDb2dVertex
 10
0.305895
 20
4.075287
 30
0.0
 70
    16
  0
VERTEX
  5
6F9
100
AcDbEntity
  8
0
  6
CONTINUOUS
 62
     7
100
AcDbVertex
100
AcDb2dVertex
 10
0.2848
 20
4.088834
 30
0.0
 70
    16
  0
VERTEX
  5
6FA
100
AcDbEntity
  8
0
  6
CONTINUOUS
 62
     7
100
AcDbVertex
100
AcDb2dVertex
 10
0.275
 20
4.1
 30
0.0
 70
    16
  0
SEQEND
  5
6FB
100
AcDbEntity
  8
0
  6
CONTINUOUS
 62
     7
  0
POLYLINE
  5
6FC
100
AcDbEntity
  8
0
  6
DASHED2
 62
     7
100
AcDb2dPolyline
 66
     1
 10
0.0
 20
0.0
 30
0.0
  0
VERTEX
  5
6FD
100
AcDbEntity
  8
0
  6
DASHED2
 62
     7
100
AcDbVertex
100
AcDb2dVertex
 10
0.273894
 20
4.101094
 30
0.0
  0
VERTEX
  5
6FE
100
AcDbEntity
  8
0
  6
DASHED2
 62
     7
100
AcDbVertex
100
AcDb2dVertex
 10
0.275
 20
4.4
 30
0.0
  0
SEQEND
  5
6FF
100
AcDbEntity
  8
0
  6
DASHED2
 62
     7
  0
INSERT
  5
713
100
AcDbEntity
  8
DIMENSIONS
100
AcDbBlockReference
  2
BOX_CALLOUT_43
 10
1.447618
 20
3.876179
 30
0.0
  0
INSERT
  5
729
100
AcDbEntity
  8
DIMENSIONS
100
AcDbBlockReference
  2
BOX_CALLOUT_44
 10
0.466002
 20
5.890544
 30
0.0
  0
INSERT
  5
7A6
100
AcDbEntity
  8
0
100
AcDbBlockReference
  2
SHEET_4
 10
1.753
 20
2.47
 30
0.0
  0
INSERT
  5
823
100
AcDbEntity
  8
0
100
AcDbBlockReference
  2
SHEET_170
 10
1.753
 20
6.05
 30
0.0
  0
INSERT
  5
8A0
100
AcDbEntity
  8
0
100
AcDbBlockReference
  2
SHEET_129
 10
9.72
 20
6.1
 30
0.0
  0
INSERT
  5
91D
100
AcDbEntity
  8
0
100
AcDbBlockReference
  2
SHEET_88
 10
9.725
 20
2.45
 30
0.0
  0
SOLID
  5
91E
100
AcDbEntity
  8
0
 62
     7
100
AcDbTrace
 10
1.781174
 20
5.659092
 30
0.0
 11
1.738874
 21
5.668746
 31
0.0
 12
1.704952
 22
5.641694
 32
0.0
 13
1.704952
 23
5.641694
 33
0.0
  0
SOLID
  5
91F
100
AcDbEntity
  8
0
 62
     7
100
AcDbTrace
 10
1.781174
 20
5.659092
 30
0.0
 11
1.704952
 21
5.641694
 31
0.0
 12
1.704952
 22
5.598306
 32
0.0
 13
1.704952
 23
5.598306
 33
0.0
  0
SOLID
  5
920
100
AcDbEntity
  8
0
 62
     7
100
AcDbTrace
 10
1.781174
 20
5.659092
 30
0.0
 11
1.704952
 21
5.598306
 31
0.0
 12
1.738874
 22
5.571254
 32
0.0
 13
1.738874
 23
5.571254
 33
0.0
  0
SOLID
  5
921
100
AcDbEntity
  8
0
 62
     7
100
AcDbTrace
 10
1.781174
 20
5.659092
 30
0.0
 11
1.738874
 21
5.571254
 31
0.0
 12
1.781174
 22
5.580908
 32
0.0
 13
1.781174
 23
5.580908
 33
0.0
  0
SOLID
  5
922
100
AcDbEntity
  8
0
 62
     7
100
AcDbTrace
 10
1.781174
 20
5.659092
 30
0.0
 11
1.781174
 21
5.580908
 31
0.0
 12
1.8
 22
5.62
 32
0.0
 13
1.8
 23
5.62
 33
0.0
  0
POLYLINE
  5
923
100
AcDbEntity
  8
0
  6
CONTINUOUS
 62
     7
100
AcDb2dPolyline
 66
     1
 10
0.0
 20
0.0
 30
0.0
 70
     1
  0
VERTEX
  5
924
100
AcDbEntity
  8
0
  6
CONTINUOUS
 62
     7
100
AcDbVertex
100
AcDb2dVertex
 10
1.8
 20
5.62
 30
0.0
 42
1.0
  0
VERTEX
  5
925
100
AcDbEntity
  8
0
  6
CONTINUOUS
 62
     7
100
AcDbVertex
100
AcDb2dVertex
 10
1.7
 20
5.62
 30
0.0
 42
1.0
  0
SEQEND
  5
926
100
AcDbEntity
  8
0
  6
CONTINUOUS
 62
     7
  0
SOLID
  5
927
100
AcDbEntity
  8
0
 62
     7
100
AcDbTrace
 10
1.781174
 20
2.979092
 30
0.0
 11
1.738874
 21
2.988746
 31
0.0
 12
1.704952
 22
2.961694
 32
0.0
 13
1.704952
 23
2.961694
 33
0.0
  0
SOLID
  5
928
100
AcDbEntity
  8
0
 62
     7
100
AcDbTrace
 10
1.781174
 20
2.979092
 30
0.0
 11
1.704952
 21
2.961694
 31
0.0
 12
1.704952
 22
2.918306
 32
0.0
 13
1.704952
 23
2.918306
 33
0.0
  0
SOLID
  5
929
100
AcDbEntity
  8
0
 62
     7
100
AcDbTrace
 10
1.781174
 20
2.979092
 30
0.0
 11
1.704952
 21
2.918306
 31
0.0
 12
1.738874
 22
2.891254
 32
0.0
 13
1.738874
 23
2.891254
 33
0.0
  0
SOLID
  5
92A
100
AcDbEntity
  8
0
 62
     7
100
AcDbTrace
 10
1.781174
 20
2.979092
 30
0.0
 11
1.738874
 21
2.891254
 31
0.0
 12
1.781174
 22
2.900908
 32
0.0
 13
1.781174
 23
2.900908
 33
0.0
  0
SOLID
  5
92B
100
AcDbEntity
  8
0
 62
     7
100
AcDbTrace
 10
1.781174
 20
2.979092
 30
0.0
 11
1.781174
 21
2.900908
 31
0.0
 12
1.8
 22
2.94
 32
0.0
 13
1.8
 23
2.94
 33
0.0
  0
POLYLINE
  5
92C
100
AcDbEntity
  8
0
  6
CONTINUOUS
 62
     7
100
AcDb2dPolyline
 66
     1
 10
0.0
 20
0.0
 30
0.0
 70
     1
  0
VERTEX
  5
92D
100
AcDbEntity
  8
0
  6
CONTINUOUS
 62
     7
100
AcDbVertex
100
AcDb2dVertex
 10
1.8
 20
2.94
 30
0.0
 42
1.0
  0
VERTEX
  5
92E
100
AcDbEntity
  8
0
  6
CONTINUOUS
 62
     7
100
AcDbVertex
100
AcDb2dVertex
 10
1.7
 20
2.94
 30
0.0
 42
1.0
  0
SEQEND
  5
92F
100
AcDbEntity
  8
0
  6
CONTINUOUS
 62
     7
  0
INSERT
  5
94B
100
AcDbEntity
  8
DIMENSIONS
100
AcDbBlockReference
 66
     1
  2
VERTICAL_126
 10
1.7485
 20
5.06
 30
0.0
  0
ATTRIB
  5
94C
100
AcDbEntity
  8
DIMENSIONS
100
AcDbText
 10
1.7485
 20
5.81
 30
0.0
 40
0.25
  1
User.LPrecVal
100
AcDbAttribute
  2
PRECISION
 70
     1
  0
ATTRIB
  5
94D
100
AcDbEntity
  8
DIMENSIONS
100
AcDbText
 10
1.7485
 20
5.435
 30
0.0
 40
0.25
  1
User.LUnitsVal
100
AcDbAttribute
  2
UNITS
 70
     1
  0
ATTRIB
  5
94E
100
AcDbEntity
  8
DIMENSIONS
100
AcDbText
 10
1.7485
 20
5.06
 30
0.0
 40
0.25
  1
User.ShowUnitsVal
100
AcDbAttribute
  2
UNITSDISPLAY
 70
     1
  0
ATTRIB
  5
94F
100
AcDbEntity
  8
DIMENSIONS
100
AcDbText
 10
1.7485
 20
4.685
 30
0.0
 40
0.25
  1
Both
100
AcDbAttribute
  2
EXTENSIONLINES
 70
     1
  0
ATTRIB
  5
950
100
AcDbEntity
  8
DIMENSIONS
100
AcDbText
 10
1.7485
 20
4.31
 30
0.0
 40
0.25
  1
90 deg.
100
AcDbAttribute
  2
ANGLE
 70
     1
  0
SEQEND
  5
951
100
AcDbEntity
  8
DIMENSIONS
  0
SOLID
  5
952
100
AcDbEntity
  8
0
 62
     7
100
AcDbTrace
 10
3.425
 20
4.525
 30
0.0
 11
3.425
 21
4.675
 31
0.0
 12
3.275
 22
4.675
 32
0.0
 13
3.275
 23
4.675
 33
0.0
  0
SOLID
  5
953
100
AcDbEntity
  8
0
 62
     7
100
AcDbTrace
 10
3.425
 20
4.525
 30
0.0
 11
3.275
 21
4.675
 31
0.0
 12
3.275
 22
4.525
 32
0.0
 13
3.275
 23
4.525
 33
0.0
  0
POLYLINE
  5
954
100
AcDbEntity
  8
0
  6
CONTINUOUS
 62
     7
100
AcDb2dPolyline
 66
     1
 10
0.0
 20
0.0
 30
0.0
 70
     1
  0
VERTEX
  5
955
100
AcDbEntity
  8
0
  6
CONTINUOUS
 62
     7
100
AcDbVertex
100
AcDb2dVertex
 10
3.275
 20
4.525
 30
0.0
  0
VERTEX
  5
956
100
AcDbEntity
  8
0
  6
CONTINUOUS
 62
     7
100
AcDbVertex
100
AcDb2dVertex
 10
3.425
 20
4.525
 30
0.0
  0
VERTEX
  5
957
100
AcDbEntity
  8
0
  6
CONTINUOUS
 62
     7
100
AcDbVertex
100
AcDb2dVertex
 10
3.425
 20
4.675
 30
0.0
  0
VERTEX
  5
958
100
AcDbEntity
  8
0
  6
CONTINUOUS
 62
     7
100
AcDbVertex
100
AcDb2dVertex
 10
3.275
 20
4.675
 30
0.0
  0
SEQEND
  5
959
100
AcDbEntity
  8
0
  6
CONTINUOUS
 62
     7
  0
SOLID
  5
95A
100
AcDbEntity
  8
0
 62
     7
100
AcDbTrace
 10
3.425
 20
3.875
 30
0.0
 11
3.425
 21
4.025
 31
0.0
 12
3.275
 22
4.025
 32
0.0
 13
3.275
 23
4.025
 33
0.0
  0
SOLID
  5
95B
100
AcDbEntity
  8
0
 62
     7
100
AcDbTrace
 10
3.425
 20
3.875
 30
0.0
 11
3.275
 21
4.025
 31
0.0
 12
3.275
 22
3.875
 32
0.0
 13
3.275
 23
3.875
 33
0.0
  0
POLYLINE
  5
95C
100
AcDbEntity
  8
0
  6
CONTINUOUS
 62
     7
100
AcDb2dPolyline
 66
     1
 10
0.0
 20
0.0
 30
0.0
 70
     1
  0
VERTEX
  5
95D
100
AcDbEntity
  8
0
  6
CONTINUOUS
 62
     7
100
AcDbVertex
100
AcDb2dVertex
 10
3.275
 20
3.875
 30
0.0
  0
VERTEX
  5
95E
100
AcDbEntity
  8
0
  6
CONTINUOUS
 62
     7
100
AcDbVertex
100
AcDb2dVertex
 10
3.425
 20
3.875
 30
0.0
  0
VERTEX
  5
95F
100
AcDbEntity
  8
0
  6
CONTINUOUS
 62
     7
100
AcDbVertex
100
AcDb2dVertex
 10
3.425
 20
4.025
 30
0.0
  0
VERTEX
  5
960
100
AcDbEntity
  8
0
  6
CONTINUOUS
 62
     7
100
AcDbVertex
100
AcDb2dVertex
 10
3.275
 20
4.025
 30
0.0
  0
SEQEND
  5
961
100
AcDbEntity
  8
0
  6
CONTINUOUS
 62
     7
  0
INSERT
  5
977
100
AcDbEntity
  8
DIMENSIONS
100
AcDbBlockReference
  2
BOX_CALLOUT_132
 10
3.65
 20
3.775
 30
0.0
  0
POLYLINE
  5
978
100
AcDbEntity
  8
0
  6
CONTINUOUS
 62
     7
100
AcDb2dPolyline
 66
     1
 10
0.0
 20
0.0
 30
0.0
  0
VERTEX
  5
979
100
AcDbEntity
  8
0
  6
CONTINUOUS
 62
     7
100
AcDbVertex
100
AcDb2dVertex
 10
3.45
 20
4.45
 30
0.0
  0
VERTEX
  5
97A
100
AcDbEntity
  8
0
  6
CONTINUOUS
 62
     7
100
AcDbVertex
100
AcDb2dVertex
 10
3.432715
 20
4.366045
 30
0.0
  0
SEQEND
  5
97B
100
AcDbEntity
  8
0
  6
CONTINUOUS
 62
     7
  0
POLYLINE
  5
97C
100
AcDbEntity
  8
0
  6
CONTINUOUS
 62
     7
100
AcDb2dPolyline
 66
     1
 10
0.0
 20
0.0
 30
0.0
  0
VERTEX
  5
97D
100
AcDbEntity
  8
0
  6
CONTINUOUS
 62
     7
100
AcDbVertex
100
AcDb2dVertex
 10
3.65
 20
3.7
 30
0.0
  0
VERTEX
  5
97E
100
AcDbEntity
  8
0
  6
CONTINUOUS
 62
     7
100
AcDbVertex
100
AcDb2dVertex
 10
3.45
 20
4.45
 30
0.0
  0
SEQEND
  5
97F
100
AcDbEntity
  8
0
  6
CONTINUOUS
 62
     7
  0
ENDSEC
  0
SECTION
  2
OBJECTS
  0
DICTIONARY
  5
C
100
AcDbDictionary
  3
ACAD_GROUP
350
D
  3
ACAD_MLINESTYLE
350
1B
  0
DICTIONARY
  5
D
102
{ACAD_REACTORS
330
C
102
}
100
AcDbDictionary
  0
DICTIONARY
  5
1B
102
{ACAD_REACTORS
330
C
102
}
100
AcDbDictionary
  3
STANDARD
350
1C
  0
MLINESTYLE
  5
1C
102
{ACAD_REACTORS
330
1B
102
}
100
AcDbMlineStyle
  2
STANDARD
 70
     0
  3

 62
   256
 51
90.0
 52
90.0
 71
     2
 49
0.5
 62
   256
  6
BYLAYER
 49
-0.5
 62
   256
  6
BYLAYER
  0
ENDSEC
  0
EOF
