  0
SECTION
  2
HEADER
  9
$LIMMIN
 10
-2.650000
 20
-4.700000
  9
$LIMMAX
 10
6.758552
 20
2.750000
  9
$EXTMIN
 10
-2.650000
 20
-4.700000
  9
$EXTMAX
 10
6.758552
 20
2.750000
  9
$ANGBASE
 50
0.000000
  9
$ANGDIR
 70
0
  9
$INSUNITS
 70
1
  9
$DIMALT
 70
1
  9
$DIMLUNIT
 70
2
  9
$DIMASZ
 40
0.125000
  9
$DIMTXT
 40
0.200000
  9
$DIMRND
 40
0.001000
  9
$DIMEXE
 40
0.083333
  9
$DIMEXO
 40
0.083333
  9
$DIMAUNIT
 70
0
  9
$DIMADEC
 70
2
  9
$GRIDUNIT
 10
0.001000
 20
0.001000
  9
$PLIMMIN
 10
-3.400000
 20
-5.500000
  9
$PLIMMAX
 10
7.600000
 20
3.000000
  9
$PSVPSCALE
 40
1.000000
  0
ENDSEC
  0
SECTION
  2
TABLES
  0
TABLE
  2
LTYPE
 70
     1
  0
LTYPE
  2
CONTINUOUS
 70
    64
  3
Ausgez
 72
    65
 73
  0
 40
0.000000
  0
ENDTAB
  0
TABLE
  2
LAYER
 70
     1
  0
LAYER
  2
default
 70
    64
 62
7
  6
CONTINUOUS
  0
LAYER
  2
Rail
 70
    64
 62
23
  6
CONTINUOUS
  0
LAYER
  2
Button
 70
    64
 62
121
  6
CONTINUOUS
  0
LAYER
  2
Nuts
 70
    64
 62
7
  6
CONTINUOUS
  0
LAYER
  2
Bolts
 70
    64
 62
1
  6
CONTINUOUS
  0
LAYER
  2
Metal Spacer
 70
    64
 62
4
  6
CONTINUOUS
  0
LAYER
  2
Lower Plate
 70
    64
 62
163
  6
CONTINUOUS
  0
LAYER
  2
Plastic Spacer
 70
    64
 62
15
  6
CONTINUOUS
  0
LAYER
  2
Washers
 70
    64
 62
2
  6
CONTINUOUS
  0
LAYER
  2
Ferrule
 70
    64
 62
221
  6
CONTINUOUS
  0
LAYER
  2
String
 70
    64
 62
8
  6
CONTINUOUS
  0
LAYER
  2
Upper Plate
 70
    64
 62
163
  6
CONTINUOUS
  0
LAYER
  2
Pad
 70
    64
 62
5
  6
CONTINUOUS
  0
LAYER
  2
Plastic Plate
 70
    64
 62
221
  6
CONTINUOUS
  0
LAYER
  2
Bobbin
 70
    64
 62
221
  6
CONTINUOUS
  0
LAYER
  2
Tension Screw
 70
    64
 62
1
  6
CONTINUOUS
  0
LAYER
  2
Tension Nut
 70
    64
 62
7
  6
CONTINUOUS
  0
LAYER
  2
Custom Nut
 70
    64
 62
3
  6
CONTINUOUS
  0
LAYER
  2
Swivel
 70
    64
 62
6
  6
CONTINUOUS
  0
LAYER
  2
Bobbin Detail
 70
    64
 62
221
  6
CONTINUOUS
  0
ENDTAB
  0
ENDSEC
  0
SECTION
  2
BLOCKS
  0
ENDSEC
  0
SECTION
  2
ENTITIES
  0
ARC
  8
Rail
  6
CONTINUOUS
 10
3.373450
 20
1.000000
 40
0.503450
 50
120.226946
 51
239.773054
 39
3
 62
23
  0
LINE
  8
Rail
  6
CONTINUOUS
 10
1.600000
 20
-0.500000
 11
1.600000
 21
2.000000
 39
3
 62
23
  0
LINE
  8
Rail
  6
CONTINUOUS
 10
1.600000
 20
2.000000
 11
3.600000
 21
2.000000
 39
3
 62
23
  0
LINE
  8
Rail
  6
CONTINUOUS
 10
1.600000
 20
-0.500000
 11
3.600000
 21
-0.500000
 39
3
 62
23
  0
LINE
  8
Rail
  6
CONTINUOUS
 10
3.370000
 20
0.785000
 11
3.600000
 21
0.785000
 39
3
 62
23
  0
LINE
  8
Rail
  6
CONTINUOUS
 10
3.370000
 20
1.215000
 11
3.600000
 21
1.215000
 39
3
 62
23
  0
LINE
  8
Rail
  6
CONTINUOUS
 10
3.370000
 20
1.215000
 11
3.370000
 21
1.435000
 39
3
 62
23
  0
LINE
  8
Rail
  6
CONTINUOUS
 10
3.370000
 20
0.565000
 11
3.370000
 21
0.785000
 39
3
 62
23
  0
LINE
  8
Rail
  6
CONTINUOUS
 10
3.120000
 20
1.435000
 11
3.370000
 21
1.435000
 39
3
 62
23
  0
LINE
  8
Rail
  6
CONTINUOUS
 10
3.120000
 20
0.565000
 11
3.370000
 21
0.565000
 39
3
 62
23
  0
LINE
  8
Rail
  6
CONTINUOUS
 10
3.600000
 20
2.000000
 11
3.600000
 21
1.215000
 39
3
 62
23
  0
LINE
  8
Rail
  6
CONTINUOUS
 10
3.600000
 20
0.785000
 11
3.600000
 21
-0.500000
 39
3
 62
23
  0
LINE
  8
default
  6
CONTINUOUS
 10
6.600000
 20
-4.500000
 11
3.600000
 21
-4.500000
 39
0
 62
7
  0
LINE
  8
default
  6
CONTINUOUS
 10
3.600000
 20
-4.500000
 11
3.600000
 21
-1.500000
 39
0
 62
7
  0
LINE
  8
default
  6
CONTINUOUS
 10
6.600000
 20
-1.500000
 11
6.600000
 21
-4.500000
 39
0
 62
7
  0
LINE
  8
default
  6
CONTINUOUS
 10
3.600000
 20
2.500000
 11
6.600000
 21
2.500000
 39
0
 62
7
  0
LINE
  8
default
  6
CONTINUOUS
 10
6.600000
 20
2.500000
 11
6.600000
 21
-0.500000
 39
0
 62
7
  0
ARC
  8
default
  6
CONTINUOUS
 10
8.754211
 20
1.000000
 40
2.625000
 50
145.150095
 51
214.849905
 39
0
 62
7
  0
LINE
  8
default
  6
CONTINUOUS
 10
3.600000
 20
-0.500000
 11
3.600000
 21
2.500000
 39
0
 62
7
  0
LINE
  8
Metal Spacer
  6
CONTINUOUS
 10
3.107500
 20
1.176000
 11
3.107500
 21
0.824000
 39
3
 62
4
  0
LINE
  8
Metal Spacer
  6
CONTINUOUS
 10
3.857500
 20
1.176000
 11
3.857500
 21
0.824000
 39
3
 62
4
  0
LINE
  8
Metal Spacer
  6
CONTINUOUS
 10
3.107500
 20
0.825000
 11
3.857500
 21
0.825000
 39
3
 62
4
  0
LINE
  8
Metal Spacer
  6
CONTINUOUS
 10
3.107500
 20
1.175000
 11
3.857500
 21
1.175000
 39
3
 62
4
  0
LINE
  8
Bolts
  6
CONTINUOUS
 10
2.937500
 20
1.245000
 11
3.107500
 21
1.245000
 39
3
 62
1
  0
LINE
  8
Bolts
  6
CONTINUOUS
 10
2.937500
 20
1.245000
 11
2.937500
 21
0.750000
 39
3
 62
1
  0
LINE
  8
Bolts
  6
CONTINUOUS
 10
3.107500
 20
1.245000
 11
3.107500
 21
0.750000
 39
3
 62
1
  0
LINE
  8
Bolts
  6
CONTINUOUS
 10
2.937500
 20
0.750000
 11
3.107500
 21
0.750000
 39
3
 62
1
  0
LINE
  8
Bolts
  6
CONTINUOUS
 10
2.937500
 20
1.217500
 11
3.107500
 21
1.217500
 39
3
 62
1
  0
LINE
  8
Bolts
  6
CONTINUOUS
 10
2.937500
 20
0.782500
 11
3.107500
 21
0.782500
 39
3
 62
1
  0
LINE
  8
Nuts
  6
CONTINUOUS
 10
4.007500
 20
0.755000
 11
4.163500
 21
0.755000
 39
3
 62
7
  0
LINE
  8
Nuts
  6
CONTINUOUS
 10
4.007500
 20
1.245000
 11
4.007500
 21
0.755000
 39
3
 62
7
  0
LINE
  8
Nuts
  6
CONTINUOUS
 10
4.007500
 20
1.245000
 11
4.163500
 21
1.245000
 39
3
 62
7
  0
LINE
  8
Nuts
  6
CONTINUOUS
 10
4.163500
 20
1.245000
 11
4.163500
 21
0.755000
 39
3
 62
7
  0
LINE
  8
Nuts
  6
CONTINUOUS
 10
4.007500
 20
1.218750
 11
4.163500
 21
1.218750
 39
3
 62
7
  0
LINE
  8
Nuts
  6
CONTINUOUS
 10
4.007500
 20
0.781250
 11
4.163500
 21
0.781250
 39
3
 62
7
  0
LINE
  8
Washers
  6
CONTINUOUS
 10
3.907500
 20
1.437500
 11
3.907500
 21
0.562500
 39
3
 62
2
  0
LINE
  8
Washers
  6
CONTINUOUS
 10
3.907500
 20
0.562500
 11
4.007500
 21
0.562500
 39
3
 62
2
  0
LINE
  8
Washers
  6
CONTINUOUS
 10
3.907500
 20
1.437500
 11
4.007500
 21
1.437500
 39
3
 62
2
  0
LINE
  8
Washers
  6
CONTINUOUS
 10
4.007500
 20
1.437500
 11
4.007500
 21
0.562500
 39
3
 62
2
  0
LINE
  8
default
  6
CONTINUOUS
 10
1.332772
 20
1.537500
 11
7.194304
 21
1.537500
 39
0
 62
7
  0
LINE
  8
Plastic Spacer
  6
CONTINUOUS
 10
4.163500
 20
1.437500
 11
4.163500
 21
0.562500
 39
3
 62
15
  0
LINE
  8
Plastic Spacer
  6
CONTINUOUS
 10
4.007500
 20
0.562500
 11
4.163500
 21
0.562500
 39
3
 62
15
  0
LINE
  8
Plastic Spacer
  6
CONTINUOUS
 10
4.007500
 20
1.437500
 11
4.007500
 21
0.562500
 39
3
 62
15
  0
LINE
  8
Plastic Spacer
  6
CONTINUOUS
 10
4.007500
 20
1.437500
 11
4.163500
 21
1.437500
 39
3
 62
15
  0
LINE
  8
Washers
  6
CONTINUOUS
 10
4.226000
 20
1.437500
 11
4.326000
 21
1.437500
 39
3
 62
2
  0
LINE
  8
Washers
  6
CONTINUOUS
 10
4.326000
 20
1.437500
 11
4.326000
 21
0.562500
 39
3
 62
2
  0
LINE
  8
Washers
  6
CONTINUOUS
 10
4.226000
 20
0.562500
 11
4.326000
 21
0.562500
 39
3
 62
2
  0
LINE
  8
Washers
  6
CONTINUOUS
 10
4.226000
 20
1.437500
 11
4.226000
 21
0.562500
 39
3
 62
2
  0
LINE
  8
Nuts
  6
CONTINUOUS
 10
4.326000
 20
1.245000
 11
4.326000
 21
0.755000
 39
3
 62
7
  0
LINE
  8
Nuts
  6
CONTINUOUS
 10
4.546000
 20
1.245000
 11
4.546000
 21
0.755000
 39
3
 62
7
  0
LINE
  8
Nuts
  6
CONTINUOUS
 10
4.326000
 20
0.755000
 11
4.546000
 21
0.755000
 39
3
 62
7
  0
LINE
  8
Nuts
  6
CONTINUOUS
 10
4.326000
 20
1.245000
 11
4.546000
 21
1.245000
 39
3
 62
7
  0
ARC
  8
Nuts
  6
CONTINUOUS
 10
4.621000
 20
1.193750
 40
0.025000
 50
0.000000
 51
90.000000
 39
3
 62
7
  0
LINE
  8
Nuts
  6
CONTINUOUS
 10
4.326000
 20
1.218750
 11
4.621000
 21
1.218750
 39
3
 62
7
  0
ARC
  8
Nuts
  6
CONTINUOUS
 10
4.621000
 20
0.806250
 40
0.025000
 50
270.000000
 51
0.000000
 39
3
 62
7
  0
LINE
  8
Nuts
  6
CONTINUOUS
 10
4.646000
 20
1.193750
 11
4.646000
 21
0.806250
 39
3
 62
7
  0
LINE
  8
Nuts
  6
CONTINUOUS
 10
4.326000
 20
0.781250
 11
4.621000
 21
0.781250
 39
3
 62
7
  0
LINE
  8
Ferrule
  6
CONTINUOUS
 10
3.832500
 20
0.382500
 11
3.832500
 21
0.542500
 39
3
 62
221
  0
LINE
  8
Ferrule
  6
CONTINUOUS
 10
3.832500
 20
0.542500
 11
3.857500
 21
0.542500
 39
3
 62
221
  0
LINE
  8
Ferrule
  6
CONTINUOUS
 10
3.832500
 20
0.382500
 11
3.857500
 21
0.382500
 39
3
 62
221
  0
LINE
  8
Ferrule
  6
CONTINUOUS
 10
3.857500
 20
0.382500
 11
3.857500
 21
0.542500
 39
3
 62
221
  0
LINE
  8
Ferrule
  6
CONTINUOUS
 10
3.857500
 20
0.411250
 11
3.897500
 21
0.411250
 39
3
 62
221
  0
LINE
  8
Ferrule
  6
CONTINUOUS
 10
3.857500
 20
0.513750
 11
3.897500
 21
0.513750
 39
3
 62
221
  0
LINE
  8
Ferrule
  6
CONTINUOUS
 10
3.897500
 20
0.411250
 11
3.897500
 21
0.513750
 39
3
 62
221
  0
LINE
  8
Ferrule
  6
DASH
 10
3.832500
 20
0.493750
 11
3.897500
 21
0.493750
 39
1
 62
221
  0
LINE
  8
Ferrule
  6
DASH
 10
3.832500
 20
0.431250
 11
3.897500
 21
0.431250
 39
1
 62
221
  0
LINE
  8
String
  6
CONTINUOUS
 10
3.632500
 20
0.562500
 11
3.832500
 21
0.562500
 39
2
 62
8
  0
LINE
  8
String
  6
CONTINUOUS
 10
3.832500
 20
0.312500
 11
3.832500
 21
0.562500
 39
2
 62
8
  0
LINE
  8
String
  6
CONTINUOUS
 10
3.632500
 20
0.312500
 11
3.832500
 21
0.312500
 39
2
 62
8
  0
LINE
  8
String
  6
CONTINUOUS
 10
3.632500
 20
0.312500
 11
3.632500
 21
0.562500
 39
2
 62
8
  0
HATCH
  8
String
  6
CONTINUOUS
  1
 
  2
plastic
 70
0
 91
1
 72
1
 10
3.632500
 20
0.562500
 11
3.832500
 21
0.562500
 72
1
 10
3.832500
 20
0.312500
 11
3.832500
 21
0.562500
 72
1
 10
3.632500
 20
0.312500
 11
3.832500
 21
0.312500
 72
1
 10
3.632500
 20
0.312500
 11
3.632500
 21
0.562500
 75
0
 76
1
 52
0.000000
 91
1
 41
0.050000
 77
0
 39
2
 62
8
  0
LINE
  8
Lower Plate
  6
CONTINUOUS
 10
3.857500
 20
1.500000
 11
3.907500
 21
1.500000
 39
3
 62
163
  0
LINE
  8
Lower Plate
  6
CONTINUOUS
 10
3.857500
 20
0.250000
 11
3.907500
 21
0.250000
 39
3
 62
163
  0
LINE
  8
Lower Plate
  6
CONTINUOUS
 10
3.907500
 20
0.250000
 11
3.907500
 21
1.500000
 39
3
 62
163
  0
LINE
  8
Lower Plate
  6
CONTINUOUS
 10
3.857500
 20
0.250000
 11
3.857500
 21
1.500000
 39
3
 62
163
  0
LINE
  8
default
  6
CONTINUOUS
 10
1.300000
 20
1.125000
 11
7.358887
 21
1.125000
 39
0
 62
7
  0
LINE
  8
default
  6
CONTINUOUS
 10
1.300000
 20
0.875000
 11
7.358887
 21
0.875000
 39
0
 62
7
  0
LINE
  8
Plastic Plate
  6
CONTINUOUS
 10
4.163500
 20
1.500000
 11
4.226000
 21
1.500000
 39
2
 62
221
  0
LINE
  8
Plastic Plate
  6
CONTINUOUS
 10
4.163500
 20
0.250000
 11
4.226000
 21
0.250000
 39
2
 62
221
  0
LINE
  8
Plastic Plate
  6
CONTINUOUS
 10
4.163500
 20
0.250000
 11
4.163500
 21
1.500000
 39
3
 62
221
  0
LINE
  8
Plastic Plate
  6
CONTINUOUS
 10
4.226000
 20
0.250000
 11
4.226000
 21
1.500000
 39
3
 62
221
  0
ARC
  8
Upper Plate
  6
CONTINUOUS
 10
5.596711
 20
0.742500
 40
0.250000
 50
270.000000
 51
0.000000
 39
3
 62
163
  0
ARC
  8
Upper Plate
  6
CONTINUOUS
 10
5.596711
 20
0.742500
 40
0.175000
 50
270.000000
 51
0.000000
 39
3
 62
163
  0
LINE
  8
Washers
  6
CONTINUOUS
 10
5.671711
 20
0.750000
 11
5.771711
 21
0.750000
 39
3
 62
2
  0
LINE
  8
Washers
  6
CONTINUOUS
 10
5.771711
 20
1.250000
 11
5.771711
 21
0.750000
 39
3
 62
2
  0
LINE
  8
Washers
  6
CONTINUOUS
 10
5.671711
 20
1.250000
 11
5.771711
 21
1.250000
 39
3
 62
2
  0
LINE
  8
Washers
  6
CONTINUOUS
 10
5.671711
 20
1.250000
 11
5.671711
 21
0.750000
 39
3
 62
2
  0
LINE
  8
Nuts
  6
CONTINUOUS
 10
5.451711
 20
1.245000
 11
5.451711
 21
0.755000
 39
3
 62
7
  0
LINE
  8
Nuts
  6
CONTINUOUS
 10
5.451711
 20
1.245000
 11
5.671711
 21
1.245000
 39
3
 62
7
  0
LINE
  8
Nuts
  6
CONTINUOUS
 10
5.671711
 20
1.245000
 11
5.671711
 21
0.755000
 39
3
 62
7
  0
LINE
  8
Nuts
  6
CONTINUOUS
 10
5.451711
 20
0.755000
 11
5.671711
 21
0.755000
 39
3
 62
7
  0
LINE
  8
Nuts
  6
CONTINUOUS
 10
5.451711
 20
0.781250
 11
5.671711
 21
0.781250
 39
3
 62
7
  0
LINE
  8
Nuts
  6
CONTINUOUS
 10
5.451711
 20
1.218750
 11
5.671711
 21
1.218750
 39
3
 62
7
  0
ARC
  8
Upper Plate
  6
CONTINUOUS
 10
5.546711
 20
0.530000
 40
0.037500
 50
90.000000
 51
270.000000
 39
3
 62
163
  0
LINE
  8
Upper Plate
  6
CONTINUOUS
 10
5.771711
 20
1.295000
 11
5.771711
 21
0.742500
 39
3
 62
163
  0
LINE
  8
Upper Plate
  6
CONTINUOUS
 10
5.846711
 20
1.295000
 11
5.846711
 21
0.742500
 39
3
 62
163
  0
LINE
  8
Upper Plate
  6
CONTINUOUS
 10
5.771711
 20
1.295000
 11
5.846711
 21
1.295000
 39
3
 62
163
  0
ARC
  8
String
  6
CONTINUOUS
 10
5.596711
 20
0.742500
 40
0.250000
 50
270.000000
 51
345.780036
 39
3
 62
8
  0
ARC
  8
String
  6
CONTINUOUS
 10
5.596711
 20
0.742500
 40
0.310000
 50
270.000000
 51
345.780036
 39
3
 62
8
  0
LINE
  8
String
  6
CONTINUOUS
 10
5.839051
 20
0.681089
 11
6.090895
 21
1.674910
 39
3
 62
8
  0
LINE
  8
String
  6
CONTINUOUS
 10
5.897213
 20
0.666350
 11
6.149056
 21
1.660171
 39
3
 62
8
  0
ARC
  8
String
  6
CONTINUOUS
 10
8.754211
 20
1.000000
 40
2.687500
 50
139.370671
 51
165.780036
 39
3
 62
8
  0
ARC
  8
String
  6
CONTINUOUS
 10
8.754211
 20
1.000000
 40
2.747500
 50
140.435782
 51
165.780036
 39
3
 62
8
  0
LINE
  8
Bolts
  6
CONTINUOUS
 10
3.107500
 20
1.125000
 11
6.091711
 21
1.125000
 39
3
 62
1
  0
LINE
  8
Bolts
  6
CONTINUOUS
 10
6.091711
 20
1.125000
 11
6.091711
 21
0.875000
 39
3
 62
1
  0
LINE
  8
Bolts
  6
CONTINUOUS
 10
3.107500
 20
0.875000
 11
6.091711
 21
0.875000
 39
3
 62
1
  0
LINE
  8
Pad
  6
CONTINUOUS
 10
6.548709
 20
2.535714
 11
6.600000
 21
2.500000
 39
3
 62
5
  0
LINE
  8
Pad
  6
CONTINUOUS
 10
6.600000
 20
-0.500000
 11
6.548709
 21
-0.535714
 39
3
 62
5
  0
LINE
  8
default
  6
CONTINUOUS
 10
6.275311
 20
-0.038129
 11
5.650000
 21
-0.300000
 39
0
 62
7
  0
LINE
  8
default
  6
CONTINUOUS
 10
6.021656
 20
-0.144356
 11
5.596711
 21
0.742500
 39
0
 62
7
  0
LINE
  8
Bobbin
  6
CONTINUOUS
 10
5.779624
 20
-0.275642
 11
6.275624
 21
-0.037979
 39
3
 62
221
  0
LINE
  8
Bobbin
  6
CONTINUOUS
 10
5.585172
 20
0.130177
 11
6.081172
 21
0.367840
 39
3
 62
221
  0
LINE
  8
Bobbin
  6
CONTINUOUS
 10
5.639186
 20
0.017449
 11
6.135187
 21
0.255112
 39
3
 62
221
  0
LINE
  8
Bobbin
  6
CONTINUOUS
 10
5.725609
 20
-0.162914
 11
6.221610
 21
0.074749
 39
3
 62
221
  0
LINE
  8
Bobbin
  6
CONTINUOUS
 10
5.639186
 20
0.017449
 11
5.585172
 21
0.130177
 39
3
 62
221
  0
LINE
  8
Bobbin
  6
CONTINUOUS
 10
5.779624
 20
-0.275642
 11
5.725609
 21
-0.162914
 39
3
 62
221
  0
LINE
  8
Bobbin
  6
CONTINUOUS
 10
6.135187
 20
0.255112
 11
6.081172
 21
0.367840
 39
3
 62
221
  0
LINE
  8
Bobbin
  6
CONTINUOUS
 10
6.275624
 20
-0.037979
 11
6.221610
 21
0.074749
 39
3
 62
221
  0
LINE
  8
Bobbin
  6
CONTINUOUS
 10
6.108882
 20
0.020734
 11
6.022459
 21
0.201098
 39
3
 62
221
  0
LINE
  8
Bobbin
  6
CONTINUOUS
 10
5.838337
 20
-0.108900
 11
5.751914
 21
0.071464
 39
3
 62
221
  0
LINE
  8
Bobbin
  6
DASH
 10
6.100220
 20
-0.122025
 11
5.905769
 21
0.283793
 39
3
 62
221
  0
LINE
  8
Bobbin
  6
DASH
 10
5.688786
 20
0.041216
 11
5.634772
 21
0.153943
 39
3
 62
221
  0
LINE
  8
Bobbin
  6
DASH
 10
6.162897
 20
-0.091993
 11
6.108882
 21
0.020734
 39
3
 62
221
  0
LINE
  8
Bobbin
  6
DASH
 10
5.751914
 20
0.071464
 11
5.697899
 21
0.184191
 39
3
 62
221
  0
LINE
  8
Bobbin
  6
DASH
 10
6.226024
 20
-0.061745
 11
6.172010
 21
0.050982
 39
3
 62
221
  0
LINE
  8
String
  6
CONTINUOUS
 10
5.751914
 20
0.071464
 11
5.697899
 21
0.184191
 39
3
 62
8
  0
LINE
  8
String
  6
CONTINUOUS
 10
5.697805
 20
0.045537
 11
5.643790
 21
0.158264
 39
3
 62
8
  0
LINE
  8
String
  6
CONTINUOUS
 10
5.786247
 20
-0.078163
 11
6.096686
 21
0.025895
 39
3
 62
8
  0
LINE
  8
String
  6
CONTINUOUS
 10
5.767178
 20
-0.021273
 11
6.077617
 21
0.082784
 39
3
 62
8
  0
ARC
  8
String
  6
CONTINUOUS
 10
5.776713
 20
-0.049718
 40
0.030000
 50
108.530875
 51
288.530875
 39
3
 62
8
  0
ARC
  8
String
  6
CONTINUOUS
 10
6.084083
 20
0.141916
 40
0.030000
 50
288.530875
 51
108.530875
 39
3
 62
8
  0
ARC
  8
String
  6
CONTINUOUS
 10
5.760932
 20
0.075785
 40
0.010000
 50
205.601841
 51
288.530875
 39
3
 62
8
  0
ARC
  8
String
  6
CONTINUOUS
 10
5.760932
 20
0.075785
 40
0.070000
 50
205.601841
 51
288.530875
 39
3
 62
8
  0
LINE
  8
String
  6
CONTINUOUS
 10
5.783179
 20
0.009414
 11
6.093617
 21
0.113471
 39
3
 62
8
  0
LINE
  8
String
  6
CONTINUOUS
 10
6.099955
 20
0.116459
 11
6.071512
 21
0.098726
 39
3
 62
8
  0
LINE
  8
String
  6
CONTINUOUS
 10
5.789284
 20
-0.006527
 11
5.760841
 21
-0.024260
 39
3
 62
8
  0
LINE
  8
String
  6
CONTINUOUS
 10
5.764110
 20
0.066303
 11
6.042358
 21
0.159570
 39
3
 62
8
  0
LINE
  8
String
  6
CONTINUOUS
 10
6.042358
 20
0.159570
 11
6.074549
 21
0.170361
 39
3
 62
8
  0
LINE
  8
String
  6
DASH
 10
6.071512
 20
0.098726
 11
5.792585
 21
-0.075175
 39
3
 62
8
  0
LINE
  8
String
  6
DASH
 10
6.068211
 20
0.167374
 11
5.789284
 21
-0.006527
 39
3
 62
8
  0
LINE
  8
default
  6
CONTINUOUS
 10
3.327102
 20
0.462500
 11
4.338603
 21
0.462500
 39
0
 62
7
  0
LINE
  8
String
  6
CONTINUOUS
 10
5.449149
 20
0.286774
 11
5.535572
 21
0.106410
 39
3
 62
8
  0
LINE
  8
String
  6
CONTINUOUS
 10
5.674604
 20
0.394803
 11
5.761027
 21
0.214439
 39
3
 62
8
  0
LINE
  8
String
  6
CONTINUOUS
 10
5.535572
 20
0.106410
 11
5.761027
 21
0.214439
 39
3
 62
8
  0
LINE
  8
String
  6
CONTINUOUS
 10
5.449149
 20
0.286774
 11
5.674604
 21
0.394803
 39
3
 62
8
  0
HATCH
  8
String
  6
CONTINUOUS
  1
 
  2
plastic
 70
0
 91
1
 72
1
 10
5.449149
 20
0.286774
 11
5.535572
 21
0.106410
 72
1
 10
5.674604
 20
0.394803
 11
5.761027
 21
0.214439
 72
1
 10
5.535572
 20
0.106410
 11
5.761027
 21
0.214439
 72
1
 10
5.449149
 20
0.286774
 11
5.674604
 21
0.394803
 75
0
 76
1
 52
0.000000
 91
1
 41
0.050000
 77
0
 39
3
 62
8
  0
ARC
  8
String
  6
CONTINUOUS
 10
6.099864
 20
0.016413
 40
0.010000
 50
30.145480
 51
108.530875
 39
3
 62
8
  0
ARC
  8
String
  6
CONTINUOUS
 10
6.099864
 20
0.016413
 40
0.070000
 50
30.078201
 51
115.601841
 39
3
 62
8
  0
LINE
  8
String
  6
CONTINUOUS
 10
6.226024
 20
-0.061745
 11
6.160438
 21
0.051496
 39
3
 62
8
  0
LINE
  8
String
  6
CONTINUOUS
 10
6.176427
 20
-0.095511
 11
6.108512
 21
0.021435
 39
3
 62
8
  0
ARC
  8
String
  6
CONTINUOUS
 10
8.754211
 20
1.000000
 40
2.687500
 50
214.247616
 51
222.049118
 39
3
 62
8
  0
LINE
  8
String
  6
CONTINUOUS
 10
6.226024
 20
-0.061745
 11
6.532811
 21
-0.512362
 39
3
 62
8
  0
LINE
  8
String
  6
CONTINUOUS
 10
6.176427
 20
-0.095511
 11
6.483214
 21
-0.546128
 39
3
 62
8
  0
ARC
  8
String
  6
CONTINUOUS
 10
8.754211
 20
1.000000
 40
2.747500
 50
214.247616
 51
220.930345
 39
3
 62
8
  0
LINE
  8
default
  6
CONTINUOUS
 10
0.035696
 20
-0.800000
 11
6.678457
 21
-0.800000
 39
0
 62
7
  0
LINE
  8
Tension Screw
  6
CONTINUOUS
 10
5.977177
 20
-0.363946
 11
6.220668
 21
-0.247275
 39
3
 62
1
  0
LINE
  8
Tension Screw
  6
CONTINUOUS
 10
5.905878
 20
-0.215146
 11
6.149369
 21
-0.098475
 39
3
 62
1
  0
LINE
  8
Tension Screw
  6
CONTINUOUS
 10
6.220668
 20
-0.247275
 11
6.149369
 21
-0.098475
 39
3
 62
1
  0
LINE
  8
Tension Screw
  6
CONTINUOUS
 10
5.977177
 20
-0.363946
 11
5.905878
 21
-0.215146
 39
3
 62
1
  0
LINE
  8
Tension Nut
  6
CONTINUOUS
 10
5.441598
 20
0.668176
 11
5.387584
 21
0.780904
 39
3
 62
7
  0
LINE
  8
Tension Nut
  6
CONTINUOUS
 10
5.441598
 20
0.668176
 11
5.751824
 21
0.816824
 39
3
 62
7
  0
LINE
  8
Tension Nut
  6
CONTINUOUS
 10
5.751824
 20
0.816824
 11
5.697809
 21
0.929551
 39
3
 62
7
  0
ARC
  8
Tension Nut
  6
CONTINUOUS
 10
5.394085
 20
0.795107
 40
0.010000
 50
295.601841
 51
25.601841
 39
3
 62
7
  0
ARC
  8
Tension Nut
  6
CONTINUOUS
 10
5.682666
 20
0.933384
 40
0.010000
 50
205.601841
 51
295.601841
 39
3
 62
7
  0
ARC
  8
Tension Nut
  6
CONTINUOUS
 10
5.388355
 20
0.853349
 40
0.010000
 50
115.601841
 51
205.601841
 39
3
 62
7
  0
LINE
  8
Tension Nut
  6
CONTINUOUS
 10
5.403103
 20
0.799428
 11
5.379336
 21
0.849028
 39
3
 62
7
  0
ARC
  8
Tension Nut
  6
CONTINUOUS
 10
5.640864
 20
0.974342
 40
0.010000
 50
25.601841
 51
115.601841
 39
3
 62
7
  0
LINE
  8
Tension Nut
  6
CONTINUOUS
 10
5.384033
 20
0.862368
 11
5.636543
 21
0.983360
 39
3
 62
7
  0
LINE
  8
Tension Nut
  6
CONTINUOUS
 10
5.673648
 20
0.929063
 11
5.649882
 21
0.978663
 39
3
 62
7
  0
LINE
  8
Tension Nut
  6
CONTINUOUS
 10
5.387584
 20
0.780904
 11
5.697809
 21
0.929551
 39
3
 62
7
  0
LINE
  8
Tension Screw
  6
CONTINUOUS
 10
5.954576
 20
-0.191811
 11
5.426438
 21
0.910408
 39
3
 62
1
  0
LINE
  8
Tension Screw
  6
CONTINUOUS
 10
5.426438
 20
0.910408
 11
5.572532
 21
0.980410
 39
3
 62
1
  0
LINE
  8
Tension Screw
  6
CONTINUOUS
 10
6.100671
 20
-0.121809
 11
5.572532
 21
0.980410
 39
3
 62
1
  0
LINE
  8
String
  6
CONTINUOUS
 10
3.832500
 20
0.432500
 11
5.596711
 21
0.432500
 39
3
 62
8
  0
LINE
  8
String
  6
CONTINUOUS
 10
3.832500
 20
0.492500
 11
5.596711
 21
0.492500
 39
3
 62
8
  0
ARC
  8
Pad
  6
CONTINUOUS
 10
6.111468
 20
1.281385
 40
0.030000
 50
160.448357
 51
180.000000
 39
3
 62
5
  0
LINE
  8
Pad
  6
CONTINUOUS
 10
6.212052
 20
1.654258
 11
6.083198
 21
1.291424
 39
3
 62
5
  0
ARC
  8
Pad
  6
CONTINUOUS
 10
6.111468
 20
0.718615
 40
0.030000
 50
180.000000
 51
199.551643
 39
3
 62
5
  0
LINE
  8
Pad
  6
CONTINUOUS
 10
6.212052
 20
0.345742
 11
6.083198
 21
0.708576
 39
3
 62
5
  0
ARC
  8
Pad
  6
CONTINUOUS
 10
6.111468
 20
1.281385
 40
0.092500
 50
160.448357
 51
180.000000
 39
3
 62
5
  0
LINE
  8
Pad
  6
CONTINUOUS
 10
6.153156
 20
1.675175
 11
6.024302
 21
1.312341
 39
3
 62
5
  0
ARC
  8
Pad
  6
CONTINUOUS
 10
6.111468
 20
0.718615
 40
0.092500
 50
180.000000
 51
199.551643
 39
3
 62
5
  0
LINE
  8
Pad
  6
CONTINUOUS
 10
6.153156
 20
0.324825
 11
6.024302
 21
0.687659
 39
3
 62
5
  0
LINE
  8
Pad
  6
CONTINUOUS
 10
6.018968
 20
1.281385
 11
6.018968
 21
1.187500
 39
3
 62
5
  0
LINE
  8
Pad
  6
CONTINUOUS
 10
6.018968
 20
0.812500
 11
6.018968
 21
0.718615
 39
3
 62
5
  0
ARC
  8
Pad
  6
CONTINUOUS
 10
8.754211
 20
1.000000
 40
2.625000
 50
145.150095
 51
165.567378
 39
3
 62
5
  0
ARC
  8
Pad
  6
CONTINUOUS
 10
8.754211
 20
1.000000
 40
2.625000
 50
194.432622
 51
214.849905
 39
3
 62
5
  0
ARC
  8
Pad
  6
CONTINUOUS
 10
8.754211
 20
1.000000
 40
2.687500
 50
145.150095
 51
165.507465
 39
3
 62
5
  0
ARC
  8
Pad
  6
CONTINUOUS
 10
8.754211
 20
1.000000
 40
2.687500
 50
194.492535
 51
214.849905
 39
3
 62
5
  0
LINE
  8
Pad
  6
CONTINUOUS
 10
6.018968
 20
1.187500
 11
6.081468
 21
1.187500
 39
3
 62
5
  0
LINE
  8
Pad
  6
CONTINUOUS
 10
6.018968
 20
0.812500
 11
6.081468
 21
0.812500
 39
3
 62
5
  0
LINE
  8
Pad
  6
CONTINUOUS
 10
6.081468
 20
1.281385
 11
6.081468
 21
1.187500
 39
3
 62
5
  0
LINE
  8
Pad
  6
CONTINUOUS
 10
6.081468
 20
0.812500
 11
6.081468
 21
0.718615
 39
3
 62
5
  0
LINE
  8
default
  6
CONTINUOUS
 10
6.177270
 20
1.500000
 11
6.177270
 21
0.500000
 39
0
 62
7
  0
LINE
  8
Custom Nut
  6
CONTINUOUS
 10
6.157270
 20
0.500000
 11
6.177270
 21
0.500000
 39
3
 62
3
  0
LINE
  8
Custom Nut
  6
CONTINUOUS
 10
5.846711
 20
1.187500
 11
5.846711
 21
0.812500
 39
3
 62
3
  0
ARC
  8
Custom Nut
  6
CONTINUOUS
 10
6.111468
 20
1.281385
 40
0.030000
 50
160.448357
 51
180.000000
 39
3
 62
3
  0
LINE
  8
Custom Nut
  6
CONTINUOUS
 10
6.157270
 20
1.500000
 11
6.083198
 21
1.291424
 39
3
 62
3
  0
ARC
  8
Custom Nut
  6
CONTINUOUS
 10
6.111468
 20
0.718615
 40
0.030000
 50
180.000000
 51
199.551643
 39
3
 62
3
  0
LINE
  8
Custom Nut
  6
CONTINUOUS
 10
6.157270
 20
0.500000
 11
6.083198
 21
0.708576
 39
3
 62
3
  0
ARC
  8
Custom Nut
  6
CONTINUOUS
 10
6.071468
 20
1.197500
 40
0.010000
 50
270.000000
 51
0.000000
 39
3
 62
3
  0
LINE
  8
Custom Nut
  6
CONTINUOUS
 10
5.846711
 20
1.187500
 11
6.071468
 21
1.187500
 39
3
 62
3
  0
ARC
  8
Custom Nut
  6
CONTINUOUS
 10
6.071468
 20
0.802500
 40
0.010000
 50
0.000000
 51
90.000000
 39
3
 62
3
  0
LINE
  8
Custom Nut
  6
CONTINUOUS
 10
5.846711
 20
0.812500
 11
6.071468
 21
0.812500
 39
3
 62
3
  0
LINE
  8
Custom Nut
  6
CONTINUOUS
 10
6.081468
 20
1.281385
 11
6.081468
 21
0.718750
 39
3
 62
3
  0
LINE
  8
Custom Nut
  6
CONTINUOUS
 10
6.157270
 20
0.584311
 11
6.157270
 21
0.500000
 39
3
 62
3
  0
ARC
  8
Custom Nut
  6
CONTINUOUS
 10
8.754211
 20
1.000000
 40
2.630000
 50
169.040559
 51
190.959441
 39
3
 62
3
  0
LINE
  8
Custom Nut
  6
CONTINUOUS
 10
6.157270
 20
1.500000
 11
6.177270
 21
1.500000
 39
3
 62
3
  0
ARC
  8
Custom Nut
  6
CONTINUOUS
 10
8.754211
 20
1.000000
 40
2.625000
 50
169.019425
 51
190.980575
 39
3
 62
3
  0
LINE
  8
Custom Nut
  6
CONTINUOUS
 10
6.157270
 20
1.500000
 11
6.157270
 21
1.415689
 39
3
 62
3
  0
LINE
  8
Nuts
  6
CONTINUOUS
 10
5.868968
 20
1.320000
 11
5.868968
 21
0.680000
 39
3
 62
7
  0
LINE
  8
Nuts
  6
CONTINUOUS
 10
5.968968
 20
1.320000
 11
5.968968
 21
0.680000
 39
3
 62
7
  0
LINE
  8
Nuts
  6
CONTINUOUS
 10
5.868968
 20
0.680000
 11
5.968968
 21
0.680000
 39
3
 62
7
  0
LINE
  8
Nuts
  6
CONTINUOUS
 10
5.868968
 20
0.718750
 11
5.968968
 21
0.718750
 39
3
 62
7
  0
LINE
  8
Nuts
  6
CONTINUOUS
 10
5.868968
 20
1.281250
 11
5.968968
 21
1.281250
 39
3
 62
7
  0
LINE
  8
Nuts
  6
CONTINUOUS
 10
5.868968
 20
1.320000
 11
5.968968
 21
1.320000
 39
3
 62
7
  0
LINE
  8
Swivel
  6
CONTINUOUS
 10
5.438893
 20
0.666880
 11
5.754529
 21
0.818120
 39
3
 62
6
  0
ARC
  8
Swivel
  6
CONTINUOUS
 10
5.596711
 20
0.742500
 40
0.175000
 50
205.601841
 51
25.601841
 39
3
 62
6
  0
LINE
  8
Pad
  6
CONTINUOUS
 10
6.600000
 20
-1.500000
 11
6.600000
 21
-4.500000
 39
3
 62
5
  0
LINE
  8
Pad
  6
CONTINUOUS
 10
6.548709
 20
-1.500000
 11
6.548709
 21
-4.500000
 39
3
 62
5
  0
LINE
  8
Custom Nut
  6
CONTINUOUS
 10
5.846711
 20
-1.812500
 11
5.846711
 21
-2.187500
 39
3
 62
3
  0
LINE
  8
Custom Nut
  6
CONTINUOUS
 10
5.846711
 20
-3.812500
 11
5.846711
 21
-4.187500
 39
3
 62
3
  0
LINE
  8
Custom Nut
  6
CONTINUOUS
 10
6.083198
 20
-1.713446
 11
6.083198
 21
-2.286553
 39
3
 62
3
  0
LINE
  8
Custom Nut
  6
CONTINUOUS
 10
6.083198
 20
-3.713446
 11
6.083198
 21
-4.286553
 39
3
 62
3
  0
LINE
  8
Custom Nut
  6
DASH
 10
6.124211
 20
-1.595263
 11
6.124211
 21
-2.404737
 39
3
 62
3
  0
LINE
  8
Custom Nut
  6
DASH
 10
6.124211
 20
-3.595263
 11
6.124211
 21
-4.404737
 39
3
 62
3
  0
LINE
  8
Custom Nut
  6
CONTINUOUS
 10
6.124211
 20
-1.595263
 11
6.083198
 21
-1.713446
 39
3
 62
3
  0
LINE
  8
Custom Nut
  6
CONTINUOUS
 10
6.124211
 20
-2.404737
 11
6.083198
 21
-2.286553
 39
3
 62
3
  0
LINE
  8
Custom Nut
  6
CONTINUOUS
 10
6.157270
 20
-1.595263
 11
6.157270
 21
-2.404737
 39
3
 62
3
  0
LINE
  8
Custom Nut
  6
CONTINUOUS
 10
6.177270
 20
-1.595263
 11
6.177270
 21
-2.404737
 39
3
 62
3
  0
LINE
  8
Custom Nut
  6
CONTINUOUS
 10
6.124211
 20
-2.404737
 11
6.177270
 21
-2.404737
 39
3
 62
3
  0
LINE
  8
Custom Nut
  6
CONTINUOUS
 10
6.124211
 20
-1.595263
 11
6.177270
 21
-1.595263
 39
3
 62
3
  0
LINE
  8
Custom Nut
  6
CONTINUOUS
 10
6.124211
 20
-3.595263
 11
6.083198
 21
-3.713446
 39
3
 62
3
  0
LINE
  8
Custom Nut
  6
CONTINUOUS
 10
6.124211
 20
-3.595263
 11
6.177270
 21
-3.595263
 39
3
 62
3
  0
LINE
  8
Custom Nut
  6
CONTINUOUS
 10
6.124211
 20
-4.404737
 11
6.083198
 21
-4.286553
 39
3
 62
3
  0
LINE
  8
Custom Nut
  6
CONTINUOUS
 10
6.157270
 20
-3.595263
 11
6.157270
 21
-4.404737
 39
3
 62
3
  0
LINE
  8
Custom Nut
  6
CONTINUOUS
 10
6.177270
 20
-3.595263
 11
6.177270
 21
-4.404737
 39
3
 62
3
  0
LINE
  8
Custom Nut
  6
CONTINUOUS
 10
6.124211
 20
-4.404737
 11
6.177270
 21
-4.404737
 39
3
 62
3
  0
LINE
  8
Custom Nut
  6
CONTINUOUS
 10
5.846711
 20
-1.812500
 11
6.083198
 21
-1.812500
 39
3
 62
3
  0
LINE
  8
Custom Nut
  6
CONTINUOUS
 10
5.846711
 20
-2.187500
 11
6.083198
 21
-2.187500
 39
3
 62
3
  0
LINE
  8
Custom Nut
  6
CONTINUOUS
 10
5.846711
 20
-3.812500
 11
6.083198
 21
-3.812500
 39
3
 62
3
  0
LINE
  8
Custom Nut
  6
CONTINUOUS
 10
5.846711
 20
-4.187500
 11
6.083198
 21
-4.187500
 39
3
 62
3
  0
LINE
  8
Pad
  6
DASH
 10
6.129211
 20
-1.500000
 11
6.129211
 21
-4.500000
 39
3
 62
5
  0
LINE
  8
Pad
  6
CONTINUOUS
 10
6.066711
 20
-1.500000
 11
6.066711
 21
-4.500000
 39
3
 62
5
  0
LINE
  8
Pad
  6
CONTINUOUS
 10
6.066711
 20
-1.500000
 11
6.600000
 21
-1.500000
 39
3
 62
5
  0
LINE
  8
Pad
  6
CONTINUOUS
 10
6.066711
 20
-1.570318
 11
6.018968
 21
-1.707895
 39
3
 62
5
  0
LINE
  8
Pad
  6
CONTINUOUS
 10
6.018968
 20
-1.707895
 11
6.018968
 21
-2.292105
 39
3
 62
5
  0
LINE
  8
Pad
  6
CONTINUOUS
 10
6.066711
 20
-2.429682
 11
6.018968
 21
-2.292105
 39
3
 62
5
  0
LINE
  8
Pad
  6
CONTINUOUS
 10
6.018968
 20
-3.707895
 11
6.018968
 21
-4.292105
 39
3
 62
5
  0
LINE
  8
Pad
  6
CONTINUOUS
 10
6.066711
 20
-4.429682
 11
6.018968
 21
-4.292105
 39
3
 62
5
  0
LINE
  8
Pad
  6
CONTINUOUS
 10
6.066711
 20
-3.570318
 11
6.018968
 21
-3.707895
 39
3
 62
5
  0
LINE
  8
Pad
  6
CONTINUOUS
 10
6.066711
 20
-4.500000
 11
6.600000
 21
-4.500000
 39
3
 62
5
  0
ARC
  8
Washers
  6
CONTINUOUS
 10
5.978968
 20
-1.695786
 40
0.010000
 50
160.448357
 51
180.000000
 39
3
 62
2
  0
LINE
  8
Washers
  6
CONTINUOUS
 10
5.968968
 20
-1.695786
 11
5.968968
 21
-1.812500
 39
3
 62
2
  0
ARC
  8
Washers
  6
CONTINUOUS
 10
5.978968
 20
-2.304214
 40
0.010000
 50
180.000000
 51
199.551643
 39
3
 62
2
  0
LINE
  8
Washers
  6
CONTINUOUS
 10
5.968968
 20
-2.187500
 11
5.968968
 21
-2.304214
 39
3
 62
2
  0
ARC
  8
Washers
  6
CONTINUOUS
 10
6.028968
 20
-1.704401
 40
0.010000
 50
160.448357
 51
180.000000
 39
3
 62
2
  0
LINE
  8
Washers
  6
CONTINUOUS
 10
6.018968
 20
-1.704401
 11
6.018968
 21
-1.812500
 39
3
 62
2
  0
ARC
  8
Washers
  6
CONTINUOUS
 10
6.028968
 20
-2.295599
 40
0.010000
 50
180.000000
 51
199.551643
 39
3
 62
2
  0
LINE
  8
Washers
  6
CONTINUOUS
 10
6.018968
 20
-2.187500
 11
6.018968
 21
-2.295599
 39
3
 62
2
  0
LINE
  8
Washers
  6
CONTINUOUS
 10
5.968968
 20
-1.812500
 11
6.018968
 21
-1.812500
 39
3
 62
2
  0
LINE
  8
Washers
  6
CONTINUOUS
 10
6.018968
 20
-2.187500
 11
5.968968
 21
-2.187500
 39
3
 62
2
  0
ARC
  8
Washers
  6
CONTINUOUS
 10
5.978968
 20
-3.695786
 40
0.010000
 50
160.448357
 51
180.000000
 39
3
 62
2
  0
LINE
  8
Washers
  6
CONTINUOUS
 10
5.968968
 20
-3.695786
 11
5.968968
 21
-3.812500
 39
3
 62
2
  0
ARC
  8
Washers
  6
CONTINUOUS
 10
5.978968
 20
-4.304214
 40
0.010000
 50
180.000000
 51
199.551643
 39
3
 62
2
  0
LINE
  8
Washers
  6
CONTINUOUS
 10
5.968968
 20
-4.187500
 11
5.968968
 21
-4.304214
 39
3
 62
2
  0
ARC
  8
Washers
  6
CONTINUOUS
 10
6.028968
 20
-3.704401
 40
0.010000
 50
160.448357
 51
180.000000
 39
3
 62
2
  0
LINE
  8
Washers
  6
CONTINUOUS
 10
6.018968
 20
-3.704401
 11
6.018968
 21
-3.812500
 39
3
 62
2
  0
ARC
  8
Washers
  6
CONTINUOUS
 10
6.028968
 20
-4.295599
 40
0.010000
 50
180.000000
 51
199.551643
 39
3
 62
2
  0
LINE
  8
Washers
  6
CONTINUOUS
 10
6.018968
 20
-4.187500
 11
6.018968
 21
-4.295599
 39
3
 62
2
  0
LINE
  8
Washers
  6
CONTINUOUS
 10
5.968968
 20
-3.812500
 11
6.018968
 21
-3.812500
 39
3
 62
2
  0
LINE
  8
Washers
  6
CONTINUOUS
 10
6.018968
 20
-4.187500
 11
5.968968
 21
-4.187500
 39
3
 62
2
  0
LINE
  8
Washers
  6
CONTINUOUS
 10
6.055432
 20
-3.600000
 11
6.019545
 21
-3.701054
 39
3
 62
2
  0
LINE
  8
Washers
  6
CONTINUOUS
 10
6.055432
 20
-3.600000
 11
6.008315
 21
-3.583267
 39
3
 62
2
  0
LINE
  8
Washers
  6
CONTINUOUS
 10
6.008315
 20
-3.583267
 11
5.969545
 21
-3.692439
 39
3
 62
2
  0
LINE
  8
Washers
  6
CONTINUOUS
 10
6.055432
 20
-4.400000
 11
6.019545
 21
-4.298946
 39
3
 62
2
  0
LINE
  8
Washers
  6
CONTINUOUS
 10
6.008315
 20
-4.416733
 11
6.055432
 21
-4.400000
 39
3
 62
2
  0
LINE
  8
Washers
  6
CONTINUOUS
 10
6.008315
 20
-4.416733
 11
5.969545
 21
-4.307561
 39
3
 62
2
  0
LINE
  8
Washers
  6
CONTINUOUS
 10
6.055432
 20
-1.600000
 11
6.019545
 21
-1.701054
 39
3
 62
2
  0
LINE
  8
Washers
  6
CONTINUOUS
 10
6.008315
 20
-1.583267
 11
5.969545
 21
-1.692439
 39
3
 62
2
  0
LINE
  8
Washers
  6
CONTINUOUS
 10
6.055432
 20
-1.600000
 11
6.008315
 21
-1.583267
 39
3
 62
2
  0
LINE
  8
Washers
  6
CONTINUOUS
 10
6.055432
 20
-2.400000
 11
6.019545
 21
-2.298946
 39
3
 62
2
  0
LINE
  8
Washers
  6
CONTINUOUS
 10
6.008315
 20
-2.416733
 11
6.055432
 21
-2.400000
 39
3
 62
2
  0
LINE
  8
Washers
  6
CONTINUOUS
 10
6.008315
 20
-2.416733
 11
5.969545
 21
-2.307561
 39
3
 62
2
  0
LINE
  8
default
  6
CONTINUOUS
 10
3.600000
 20
-1.500000
 11
6.600000
 21
-1.500000
 39
0
 62
7
  0
LINE
  8
Rail
  6
CONTINUOUS
 10
1.600000
 20
-1.300000
 11
1.600000
 21
-4.700000
 39
3
 62
23
  0
LINE
  8
Rail
  6
CONTINUOUS
 10
3.600000
 20
-1.300000
 11
3.600000
 21
-4.700000
 39
3
 62
23
  0
LINE
  8
Rail
  6
DASH
 10
2.870000
 20
-1.300000
 11
2.870000
 21
-4.700000
 39
3
 62
23
  0
LINE
  8
Rail
  6
DASH
 10
3.120000
 20
-1.300000
 11
3.120000
 21
-4.700000
 39
3
 62
23
  0
LINE
  8
Rail
  6
DASH
 10
3.370000
 20
-1.300000
 11
3.370000
 21
-4.700000
 39
3
 62
23
  0
LINE
  8
Bolts
  6
CONTINUOUS
 10
2.937500
 20
-1.755000
 11
3.107500
 21
-1.755000
 39
3
 62
1
  0
LINE
  8
Bolts
  6
CONTINUOUS
 10
2.937500
 20
-1.755000
 11
2.937500
 21
-2.250000
 39
3
 62
1
  0
LINE
  8
Bolts
  6
CONTINUOUS
 10
3.107500
 20
-1.755000
 11
3.107500
 21
-2.250000
 39
3
 62
1
  0
LINE
  8
Bolts
  6
CONTINUOUS
 10
2.937500
 20
-2.250000
 11
3.107500
 21
-2.250000
 39
3
 62
1
  0
LINE
  8
Bolts
  6
CONTINUOUS
 10
2.937500
 20
-1.782500
 11
3.107500
 21
-1.782500
 39
3
 62
1
  0
LINE
  8
Bolts
  6
CONTINUOUS
 10
2.937500
 20
-2.217500
 11
3.107500
 21
-2.217500
 39
3
 62
1
  0
LINE
  8
Bolts
  6
CONTINUOUS
 10
3.107500
 20
-1.875000
 11
6.091711
 21
-1.875000
 39
3
 62
1
  0
LINE
  8
Bolts
  6
CONTINUOUS
 10
6.091711
 20
-1.875000
 11
6.091711
 21
-2.125000
 39
3
 62
1
  0
LINE
  8
Bolts
  6
CONTINUOUS
 10
3.107500
 20
-2.125000
 11
6.091711
 21
-2.125000
 39
3
 62
1
  0
LINE
  8
Bolts
  6
CONTINUOUS
 10
2.937500
 20
-3.755000
 11
3.107500
 21
-3.755000
 39
3
 62
1
  0
LINE
  8
Bolts
  6
CONTINUOUS
 10
2.937500
 20
-3.755000
 11
2.937500
 21
-4.250000
 39
3
 62
1
  0
LINE
  8
Bolts
  6
CONTINUOUS
 10
3.107500
 20
-3.755000
 11
3.107500
 21
-4.250000
 39
3
 62
1
  0
LINE
  8
Bolts
  6
CONTINUOUS
 10
2.937500
 20
-4.250000
 11
3.107500
 21
-4.250000
 39
3
 62
1
  0
LINE
  8
Bolts
  6
CONTINUOUS
 10
2.937500
 20
-3.782500
 11
3.107500
 21
-3.782500
 39
3
 62
1
  0
LINE
  8
Bolts
  6
CONTINUOUS
 10
2.937500
 20
-4.217500
 11
3.107500
 21
-4.217500
 39
3
 62
1
  0
LINE
  8
Bolts
  6
CONTINUOUS
 10
3.107500
 20
-3.875000
 11
6.091711
 21
-3.875000
 39
3
 62
1
  0
LINE
  8
Bolts
  6
CONTINUOUS
 10
6.091711
 20
-3.875000
 11
6.091711
 21
-4.125000
 39
3
 62
1
  0
LINE
  8
Bolts
  6
CONTINUOUS
 10
3.107500
 20
-4.125000
 11
6.091711
 21
-4.125000
 39
3
 62
1
  0
LINE
  8
Metal Spacer
  6
DASH
 10
3.107500
 20
1.125000
 11
3.857500
 21
1.125000
 39
3
 62
4
  0
LINE
  8
Metal Spacer
  6
DASH
 10
3.107500
 20
0.875000
 11
3.857500
 21
0.875000
 39
3
 62
4
  0
LINE
  8
Metal Spacer
  6
CONTINUOUS
 10
3.107500
 20
-1.824000
 11
3.107500
 21
-2.176000
 39
3
 62
4
  0
LINE
  8
Metal Spacer
  6
CONTINUOUS
 10
3.857500
 20
-1.824000
 11
3.857500
 21
-2.176000
 39
3
 62
4
  0
LINE
  8
Metal Spacer
  6
CONTINUOUS
 10
3.107500
 20
-2.175000
 11
3.857500
 21
-2.175000
 39
3
 62
4
  0
LINE
  8
Metal Spacer
  6
CONTINUOUS
 10
3.107500
 20
-1.825000
 11
3.857500
 21
-1.825000
 39
3
 62
4
  0
LINE
  8
Metal Spacer
  6
DASH
 10
3.107500
 20
-1.875000
 11
3.857500
 21
-1.875000
 39
3
 62
4
  0
LINE
  8
Metal Spacer
  6
DASH
 10
3.107500
 20
-2.125000
 11
3.857500
 21
-2.125000
 39
3
 62
4
  0
LINE
  8
Metal Spacer
  6
CONTINUOUS
 10
3.107500
 20
-3.824000
 11
3.107500
 21
-4.176000
 39
3
 62
4
  0
LINE
  8
Metal Spacer
  6
CONTINUOUS
 10
3.857500
 20
-3.824000
 11
3.857500
 21
-4.176000
 39
3
 62
4
  0
LINE
  8
Metal Spacer
  6
CONTINUOUS
 10
3.107500
 20
-4.175000
 11
3.857500
 21
-4.175000
 39
3
 62
4
  0
LINE
  8
Metal Spacer
  6
CONTINUOUS
 10
3.107500
 20
-3.825000
 11
3.857500
 21
-3.825000
 39
3
 62
4
  0
LINE
  8
Metal Spacer
  6
DASH
 10
3.107500
 20
-3.875000
 11
3.857500
 21
-3.875000
 39
3
 62
4
  0
LINE
  8
Metal Spacer
  6
DASH
 10
3.107500
 20
-4.125000
 11
3.857500
 21
-4.125000
 39
3
 62
4
  0
LINE
  8
Nuts
  6
CONTINUOUS
 10
4.007500
 20
-2.245000
 11
4.163500
 21
-2.245000
 39
3
 62
7
  0
LINE
  8
Nuts
  6
CONTINUOUS
 10
4.007500
 20
-1.755000
 11
4.007500
 21
-2.245000
 39
3
 62
7
  0
LINE
  8
Nuts
  6
CONTINUOUS
 10
4.007500
 20
-1.755000
 11
4.163500
 21
-1.755000
 39
3
 62
7
  0
LINE
  8
Nuts
  6
CONTINUOUS
 10
4.163500
 20
-1.755000
 11
4.163500
 21
-2.245000
 39
3
 62
7
  0
LINE
  8
Nuts
  6
CONTINUOUS
 10
4.007500
 20
-1.781250
 11
4.163500
 21
-1.781250
 39
3
 62
7
  0
LINE
  8
Nuts
  6
CONTINUOUS
 10
4.007500
 20
-2.218750
 11
4.163500
 21
-2.218750
 39
3
 62
7
  0
LINE
  8
Nuts
  6
CONTINUOUS
 10
4.326000
 20
-1.755000
 11
4.326000
 21
-2.245000
 39
3
 62
7
  0
LINE
  8
Nuts
  6
CONTINUOUS
 10
4.546000
 20
-1.755000
 11
4.546000
 21
-2.245000
 39
3
 62
7
  0
LINE
  8
Nuts
  6
CONTINUOUS
 10
4.326000
 20
-2.245000
 11
4.546000
 21
-2.245000
 39
3
 62
7
  0
LINE
  8
Nuts
  6
CONTINUOUS
 10
4.326000
 20
-1.755000
 11
4.546000
 21
-1.755000
 39
3
 62
7
  0
ARC
  8
Nuts
  6
CONTINUOUS
 10
4.621000
 20
-1.806250
 40
0.025000
 50
0.000000
 51
90.000000
 39
3
 62
7
  0
LINE
  8
Nuts
  6
CONTINUOUS
 10
4.326000
 20
-1.781250
 11
4.621000
 21
-1.781250
 39
3
 62
7
  0
ARC
  8
Nuts
  6
CONTINUOUS
 10
4.621000
 20
-2.193750
 40
0.025000
 50
270.000000
 51
0.000000
 39
3
 62
7
  0
LINE
  8
Nuts
  6
CONTINUOUS
 10
4.646000
 20
-1.806250
 11
4.646000
 21
-2.193750
 39
3
 62
7
  0
LINE
  8
Nuts
  6
CONTINUOUS
 10
4.326000
 20
-2.218750
 11
4.621000
 21
-2.218750
 39
3
 62
7
  0
LINE
  8
Nuts
  6
CONTINUOUS
 10
5.451711
 20
-1.755000
 11
5.451711
 21
-2.245000
 39
3
 62
7
  0
LINE
  8
Nuts
  6
CONTINUOUS
 10
5.451711
 20
-1.755000
 11
5.671711
 21
-1.755000
 39
3
 62
7
  0
LINE
  8
Nuts
  6
CONTINUOUS
 10
5.671711
 20
-1.755000
 11
5.671711
 21
-2.245000
 39
3
 62
7
  0
LINE
  8
Nuts
  6
CONTINUOUS
 10
5.451711
 20
-2.245000
 11
5.671711
 21
-2.245000
 39
3
 62
7
  0
LINE
  8
Nuts
  6
CONTINUOUS
 10
5.451711
 20
-2.218750
 11
5.671711
 21
-2.218750
 39
3
 62
7
  0
LINE
  8
Nuts
  6
CONTINUOUS
 10
5.451711
 20
-1.781250
 11
5.671711
 21
-1.781250
 39
3
 62
7
  0
LINE
  8
Nuts
  6
CONTINUOUS
 10
5.868968
 20
-1.680000
 11
5.868968
 21
-2.320000
 39
3
 62
7
  0
LINE
  8
Nuts
  6
CONTINUOUS
 10
5.968968
 20
-1.680000
 11
5.968968
 21
-2.320000
 39
3
 62
7
  0
LINE
  8
Nuts
  6
CONTINUOUS
 10
5.868968
 20
-2.320000
 11
5.968968
 21
-2.320000
 39
3
 62
7
  0
LINE
  8
Nuts
  6
CONTINUOUS
 10
5.868968
 20
-2.281250
 11
5.968968
 21
-2.281250
 39
3
 62
7
  0
LINE
  8
Nuts
  6
CONTINUOUS
 10
5.868968
 20
-1.718750
 11
5.968968
 21
-1.718750
 39
3
 62
7
  0
LINE
  8
Nuts
  6
CONTINUOUS
 10
5.868968
 20
-1.680000
 11
5.968968
 21
-1.680000
 39
3
 62
7
  0
LINE
  8
Nuts
  6
CONTINUOUS
 10
4.007500
 20
-4.245000
 11
4.163500
 21
-4.245000
 39
3
 62
7
  0
LINE
  8
Nuts
  6
CONTINUOUS
 10
4.007500
 20
-3.755000
 11
4.007500
 21
-4.245000
 39
3
 62
7
  0
LINE
  8
Nuts
  6
CONTINUOUS
 10
4.007500
 20
-3.755000
 11
4.163500
 21
-3.755000
 39
3
 62
7
  0
LINE
  8
Nuts
  6
CONTINUOUS
 10
4.163500
 20
-3.755000
 11
4.163500
 21
-4.245000
 39
3
 62
7
  0
LINE
  8
Nuts
  6
CONTINUOUS
 10
4.007500
 20
-3.781250
 11
4.163500
 21
-3.781250
 39
3
 62
7
  0
LINE
  8
Nuts
  6
CONTINUOUS
 10
4.007500
 20
-4.218750
 11
4.163500
 21
-4.218750
 39
3
 62
7
  0
LINE
  8
Nuts
  6
CONTINUOUS
 10
4.326000
 20
-3.755000
 11
4.326000
 21
-4.245000
 39
3
 62
7
  0
LINE
  8
Nuts
  6
CONTINUOUS
 10
4.546000
 20
-3.755000
 11
4.546000
 21
-4.245000
 39
3
 62
7
  0
LINE
  8
Nuts
  6
CONTINUOUS
 10
4.326000
 20
-4.245000
 11
4.546000
 21
-4.245000
 39
3
 62
7
  0
LINE
  8
Nuts
  6
CONTINUOUS
 10
4.326000
 20
-3.755000
 11
4.546000
 21
-3.755000
 39
3
 62
7
  0
ARC
  8
Nuts
  6
CONTINUOUS
 10
4.621000
 20
-3.806250
 40
0.025000
 50
0.000000
 51
90.000000
 39
3
 62
7
  0
LINE
  8
Nuts
  6
CONTINUOUS
 10
4.326000
 20
-3.781250
 11
4.621000
 21
-3.781250
 39
3
 62
7
  0
ARC
  8
Nuts
  6
CONTINUOUS
 10
4.621000
 20
-4.193750
 40
0.025000
 50
270.000000
 51
0.000000
 39
3
 62
7
  0
LINE
  8
Nuts
  6
CONTINUOUS
 10
4.646000
 20
-3.806250
 11
4.646000
 21
-4.193750
 39
3
 62
7
  0
LINE
  8
Nuts
  6
CONTINUOUS
 10
4.326000
 20
-4.218750
 11
4.621000
 21
-4.218750
 39
3
 62
7
  0
LINE
  8
Nuts
  6
CONTINUOUS
 10
5.451711
 20
-3.755000
 11
5.451711
 21
-4.245000
 39
3
 62
7
  0
LINE
  8
Nuts
  6
CONTINUOUS
 10
5.451711
 20
-3.755000
 11
5.671711
 21
-3.755000
 39
3
 62
7
  0
LINE
  8
Nuts
  6
CONTINUOUS
 10
5.671711
 20
-3.755000
 11
5.671711
 21
-4.245000
 39
3
 62
7
  0
LINE
  8
Nuts
  6
CONTINUOUS
 10
5.451711
 20
-4.245000
 11
5.671711
 21
-4.245000
 39
3
 62
7
  0
LINE
  8
Nuts
  6
CONTINUOUS
 10
5.451711
 20
-4.218750
 11
5.671711
 21
-4.218750
 39
3
 62
7
  0
LINE
  8
Nuts
  6
CONTINUOUS
 10
5.451711
 20
-3.781250
 11
5.671711
 21
-3.781250
 39
3
 62
7
  0
LINE
  8
Nuts
  6
CONTINUOUS
 10
5.868968
 20
-3.680000
 11
5.868968
 21
-4.320000
 39
3
 62
7
  0
LINE
  8
Nuts
  6
CONTINUOUS
 10
5.968968
 20
-3.680000
 11
5.968968
 21
-4.320000
 39
3
 62
7
  0
LINE
  8
Nuts
  6
CONTINUOUS
 10
5.868968
 20
-4.320000
 11
5.968968
 21
-4.320000
 39
3
 62
7
  0
LINE
  8
Nuts
  6
CONTINUOUS
 10
5.868968
 20
-4.281250
 11
5.968968
 21
-4.281250
 39
3
 62
7
  0
LINE
  8
Nuts
  6
CONTINUOUS
 10
5.868968
 20
-3.718750
 11
5.968968
 21
-3.718750
 39
3
 62
7
  0
LINE
  8
Nuts
  6
CONTINUOUS
 10
5.868968
 20
-3.680000
 11
5.968968
 21
-3.680000
 39
3
 62
7
  0
LINE
  8
Plastic Spacer
  6
CONTINUOUS
 10
4.163500
 20
-1.562500
 11
4.163500
 21
-2.437500
 39
3
 62
15
  0
LINE
  8
Plastic Spacer
  6
CONTINUOUS
 10
4.007500
 20
-2.437500
 11
4.163500
 21
-2.437500
 39
3
 62
15
  0
LINE
  8
Plastic Spacer
  6
CONTINUOUS
 10
4.007500
 20
-1.562500
 11
4.007500
 21
-2.437500
 39
3
 62
15
  0
LINE
  8
Plastic Spacer
  6
CONTINUOUS
 10
4.007500
 20
-1.562500
 11
4.163500
 21
-1.562500
 39
3
 62
15
  0
LINE
  8
Plastic Spacer
  6
CONTINUOUS
 10
4.163500
 20
-3.562500
 11
4.163500
 21
-4.437500
 39
3
 62
15
  0
LINE
  8
Plastic Spacer
  6
CONTINUOUS
 10
4.007500
 20
-4.437500
 11
4.163500
 21
-4.437500
 39
3
 62
15
  0
LINE
  8
Plastic Spacer
  6
CONTINUOUS
 10
4.007500
 20
-3.562500
 11
4.007500
 21
-4.437500
 39
3
 62
15
  0
LINE
  8
Plastic Spacer
  6
CONTINUOUS
 10
4.007500
 20
-3.562500
 11
4.163500
 21
-3.562500
 39
3
 62
15
  0
ARC
  8
Washers
  6
CONTINUOUS
 10
5.978968
 20
1.304214
 40
0.010000
 50
160.448357
 51
180.000000
 39
3
 62
2
  0
LINE
  8
Washers
  6
CONTINUOUS
 10
5.968968
 20
1.304214
 11
5.968968
 21
1.187500
 39
3
 62
2
  0
ARC
  8
Washers
  6
CONTINUOUS
 10
5.978968
 20
0.695786
 40
0.010000
 50
180.000000
 51
199.551643
 39
3
 62
2
  0
LINE
  8
Washers
  6
CONTINUOUS
 10
5.968968
 20
0.812500
 11
5.968968
 21
0.695786
 39
3
 62
2
  0
ARC
  8
Washers
  6
CONTINUOUS
 10
6.028968
 20
1.295599
 40
0.010000
 50
160.448357
 51
180.000000
 39
3
 62
2
  0
LINE
  8
Washers
  6
CONTINUOUS
 10
6.018968
 20
1.295599
 11
6.018968
 21
1.187500
 39
3
 62
2
  0
ARC
  8
Washers
  6
CONTINUOUS
 10
6.028968
 20
0.704401
 40
0.010000
 50
180.000000
 51
199.551643
 39
3
 62
2
  0
LINE
  8
Washers
  6
CONTINUOUS
 10
6.018968
 20
0.812500
 11
6.018968
 21
0.704401
 39
3
 62
2
  0
LINE
  8
Washers
  6
CONTINUOUS
 10
5.968968
 20
1.187500
 11
6.018968
 21
1.187500
 39
3
 62
2
  0
LINE
  8
Washers
  6
CONTINUOUS
 10
6.018968
 20
0.812500
 11
5.968968
 21
0.812500
 39
3
 62
2
  0
LINE
  8
Washers
  6
CONTINUOUS
 10
6.090945
 20
0.500000
 11
6.019545
 21
0.701054
 39
3
 62
2
  0
LINE
  8
Washers
  6
CONTINUOUS
 10
6.043828
 20
0.483267
 11
6.090945
 21
0.500000
 39
3
 62
2
  0
LINE
  8
Washers
  6
CONTINUOUS
 10
6.043828
 20
0.483267
 11
5.969545
 21
0.692439
 39
3
 62
2
  0
LINE
  8
Washers
  6
CONTINUOUS
 10
6.090945
 20
1.500000
 11
6.019545
 21
1.298946
 39
3
 62
2
  0
LINE
  8
Washers
  6
CONTINUOUS
 10
6.090945
 20
1.500000
 11
6.043828
 21
1.516733
 39
3
 62
2
  0
LINE
  8
Washers
  6
CONTINUOUS
 10
6.043828
 20
1.516733
 11
5.969545
 21
1.307561
 39
3
 62
2
  0
LINE
  8
Rail
  6
DASHDOTDOT
 10
1.600000
 20
-1.300000
 11
3.600000
 21
-1.300000
 39
1
 62
23
  0
LINE
  8
Rail
  6
DASHDOTDOT
 10
1.600000
 20
-4.700000
 11
3.600000
 21
-4.700000
 39
1
 62
23
  0
LINE
  8
Washers
  6
CONTINUOUS
 10
3.907500
 20
-1.562500
 11
3.907500
 21
-2.437500
 39
3
 62
2
  0
LINE
  8
Washers
  6
CONTINUOUS
 10
3.907500
 20
-2.437500
 11
4.007500
 21
-2.437500
 39
3
 62
2
  0
LINE
  8
Washers
  6
CONTINUOUS
 10
3.907500
 20
-1.562500
 11
4.007500
 21
-1.562500
 39
3
 62
2
  0
LINE
  8
Washers
  6
CONTINUOUS
 10
4.007500
 20
-1.562500
 11
4.007500
 21
-2.437500
 39
3
 62
2
  0
LINE
  8
Washers
  6
CONTINUOUS
 10
4.226000
 20
-1.562500
 11
4.326000
 21
-1.562500
 39
3
 62
2
  0
LINE
  8
Washers
  6
CONTINUOUS
 10
4.326000
 20
-1.562500
 11
4.326000
 21
-2.437500
 39
3
 62
2
  0
LINE
  8
Washers
  6
CONTINUOUS
 10
4.226000
 20
-2.437500
 11
4.326000
 21
-2.437500
 39
3
 62
2
  0
LINE
  8
Washers
  6
CONTINUOUS
 10
4.226000
 20
-1.562500
 11
4.226000
 21
-2.437500
 39
3
 62
2
  0
LINE
  8
Washers
  6
CONTINUOUS
 10
5.671711
 20
-2.250000
 11
5.771711
 21
-2.250000
 39
3
 62
2
  0
LINE
  8
Washers
  6
CONTINUOUS
 10
5.771711
 20
-1.750000
 11
5.771711
 21
-2.250000
 39
3
 62
2
  0
LINE
  8
Washers
  6
CONTINUOUS
 10
5.671711
 20
-1.750000
 11
5.771711
 21
-1.750000
 39
3
 62
2
  0
LINE
  8
Washers
  6
CONTINUOUS
 10
5.671711
 20
-1.750000
 11
5.671711
 21
-2.250000
 39
3
 62
2
  0
LINE
  8
Washers
  6
CONTINUOUS
 10
3.907500
 20
-3.562500
 11
3.907500
 21
-4.437500
 39
3
 62
2
  0
LINE
  8
Washers
  6
CONTINUOUS
 10
3.907500
 20
-4.437500
 11
4.007500
 21
-4.437500
 39
3
 62
2
  0
LINE
  8
Washers
  6
CONTINUOUS
 10
3.907500
 20
-3.562500
 11
4.007500
 21
-3.562500
 39
3
 62
2
  0
LINE
  8
Washers
  6
CONTINUOUS
 10
4.007500
 20
-3.562500
 11
4.007500
 21
-4.437500
 39
3
 62
2
  0
LINE
  8
Washers
  6
CONTINUOUS
 10
4.226000
 20
-3.562500
 11
4.326000
 21
-3.562500
 39
3
 62
2
  0
LINE
  8
Washers
  6
CONTINUOUS
 10
4.326000
 20
-3.562500
 11
4.326000
 21
-4.437500
 39
3
 62
2
  0
LINE
  8
Washers
  6
CONTINUOUS
 10
4.226000
 20
-4.437500
 11
4.326000
 21
-4.437500
 39
3
 62
2
  0
LINE
  8
Washers
  6
CONTINUOUS
 10
4.226000
 20
-3.562500
 11
4.226000
 21
-4.437500
 39
3
 62
2
  0
LINE
  8
Washers
  6
CONTINUOUS
 10
5.671711
 20
-4.250000
 11
5.771711
 21
-4.250000
 39
3
 62
2
  0
LINE
  8
Washers
  6
CONTINUOUS
 10
5.771711
 20
-3.750000
 11
5.771711
 21
-4.250000
 39
3
 62
2
  0
LINE
  8
Washers
  6
CONTINUOUS
 10
5.671711
 20
-3.750000
 11
5.771711
 21
-3.750000
 39
3
 62
2
  0
LINE
  8
Washers
  6
CONTINUOUS
 10
5.671711
 20
-3.750000
 11
5.671711
 21
-4.250000
 39
3
 62
2
  0
LINE
  8
Lower Plate
  6
DASH
 10
3.857500
 20
0.514500
 11
3.907500
 21
0.514500
 39
3
 62
163
  0
LINE
  8
Lower Plate
  6
DASH
 10
3.857500
 20
0.410500
 11
3.907500
 21
0.410500
 39
3
 62
163
  0
LINE
  8
Lower Plate
  6
CONTINUOUS
 10
3.857500
 20
-4.500000
 11
3.907500
 21
-4.500000
 39
3
 62
163
  0
LINE
  8
Lower Plate
  6
CONTINUOUS
 10
3.907500
 20
-1.500000
 11
3.907500
 21
-4.500000
 39
3
 62
163
  0
LINE
  8
Lower Plate
  6
CONTINUOUS
 10
3.857500
 20
-1.500000
 11
3.907500
 21
-1.500000
 39
3
 62
163
  0
LINE
  8
Lower Plate
  6
CONTINUOUS
 10
3.857500
 20
-1.500000
 11
3.857500
 21
-4.500000
 39
3
 62
163
  0
LINE
  8
default
  6
CONTINUOUS
 10
6.600000
 20
-0.500000
 11
3.600000
 21
-0.500000
 39
0
 62
7
  0
LINE
  8
default
  6
CONTINUOUS
 10
0.600000
 20
-4.500000
 11
-2.400000
 21
-4.500000
 39
0
 62
7
  0
LINE
  8
default
  6
CONTINUOUS
 10
-2.400000
 20
-4.500000
 11
-2.400000
 21
-1.500000
 39
0
 62
7
  0
LINE
  8
default
  6
CONTINUOUS
 10
-2.400000
 20
-1.500000
 11
0.600000
 21
-1.500000
 39
0
 62
7
  0
LINE
  8
default
  6
CONTINUOUS
 10
0.600000
 20
-1.500000
 11
0.600000
 21
-4.500000
 39
0
 62
7
  0
LINE
  8
Pad
  6
CONTINUOUS
 10
-2.435715
 20
-1.500000
 11
0.635715
 21
-1.500000
 39
3
 62
5
  0
LINE
  8
Pad
  6
CONTINUOUS
 10
0.635715
 20
-1.500000
 11
0.635715
 21
-4.500000
 39
3
 62
5
  0
LINE
  8
Pad
  6
CONTINUOUS
 10
-2.435715
 20
-4.500000
 11
0.635715
 21
-4.500000
 39
3
 62
5
  0
LINE
  8
Pad
  6
CONTINUOUS
 10
-2.435715
 20
-1.500000
 11
-2.435715
 21
-4.500000
 39
3
 62
5
  0
LINE
  8
Pad
  6
CONTINUOUS
 10
-2.400000
 20
-1.500000
 11
-2.400000
 21
-4.500000
 39
3
 62
5
  0
LINE
  8
Pad
  6
CONTINUOUS
 10
0.600000
 20
-1.500000
 11
0.600000
 21
-4.500000
 39
3
 62
5
  0
LINE
  8
Rail
  6
CONTINUOUS
 10
-1.900000
 20
-1.300000
 11
-1.900000
 21
-4.700000
 39
3
 62
23
  0
LINE
  8
Rail
  6
CONTINUOUS
 10
0.600000
 20
-1.300000
 11
0.600000
 21
-4.700000
 39
3
 62
23
  0
LINE
  8
Rail
  6
DASHDOTDOT
 10
-1.900000
 20
-4.700000
 11
0.600000
 21
-4.700000
 39
1
 62
23
  0
LINE
  8
Rail
  6
DASHDOTDOT
 10
-1.900000
 20
-1.300000
 11
0.600000
 21
-1.300000
 39
1
 62
23
  0
LINE
  8
default
  6
CONTINUOUS
 10
-0.900000
 20
1.000000
 11
7.358887
 21
1.000000
 39
0
 62
7
  0
LINE
  8
Rail
  6
DASH
 10
-1.335000
 20
-1.300000
 11
-1.335000
 21
-4.700000
 39
3
 62
23
  0
LINE
  8
Rail
  6
DASH
 10
-1.115000
 20
-1.300000
 11
-1.115000
 21
-4.700000
 39
3
 62
23
  0
LINE
  8
Rail
  6
DASH
 10
-0.685000
 20
-1.300000
 11
-0.685000
 21
-4.700000
 39
3
 62
23
  0
LINE
  8
Rail
  6
DASH
 10
-0.465000
 20
-1.300000
 11
-0.465000
 21
-4.700000
 39
3
 62
23
  0
LINE
  8
Nuts
  6
CONTINUOUS
 10
-1.026296
 20
-2.218750
 11
-0.773704
 21
-2.218750
 39
3
 62
7
  0
LINE
  8
Nuts
  6
CONTINUOUS
 10
-0.773705
 20
-2.218750
 11
-0.647409
 21
-2.000000
 39
3
 62
7
  0
LINE
  8
Nuts
  6
CONTINUOUS
 10
-0.647409
 20
-2.000000
 11
-0.773705
 21
-1.781250
 39
3
 62
7
  0
LINE
  8
Nuts
  6
CONTINUOUS
 10
-0.773704
 20
-1.781250
 11
-1.026296
 21
-1.781250
 39
3
 62
7
  0
LINE
  8
Nuts
  6
CONTINUOUS
 10
-1.026295
 20
-1.781250
 11
-1.152591
 21
-2.000000
 39
3
 62
7
  0
LINE
  8
Nuts
  6
CONTINUOUS
 10
-1.152591
 20
-2.000000
 11
-1.026295
 21
-2.218750
 39
3
 62
7
  0
CIRCLE
  8
Nuts
  6
CONTINUOUS
 10
-0.900000
 20
-2.000000
 40
0.125000
 39
3
 62
7
  0
LINE
  8
Nuts
  6
CONTINUOUS
 10
4.007500
 20
-4.245000
 11
4.163500
 21
-4.245000
 39
3
 62
7
  0
LINE
  8
Nuts
  6
CONTINUOUS
 10
4.007500
 20
-3.755000
 11
4.007500
 21
-4.245000
 39
3
 62
7
  0
LINE
  8
Nuts
  6
CONTINUOUS
 10
4.007500
 20
-3.755000
 11
4.163500
 21
-3.755000
 39
3
 62
7
  0
LINE
  8
Nuts
  6
CONTINUOUS
 10
4.163500
 20
-3.755000
 11
4.163500
 21
-4.245000
 39
3
 62
7
  0
LINE
  8
Nuts
  6
CONTINUOUS
 10
4.007500
 20
-3.781250
 11
4.163500
 21
-3.781250
 39
3
 62
7
  0
LINE
  8
Nuts
  6
CONTINUOUS
 10
4.007500
 20
-4.218750
 11
4.163500
 21
-4.218750
 39
3
 62
7
  0
LINE
  8
Nuts
  6
CONTINUOUS
 10
4.326000
 20
-3.755000
 11
4.326000
 21
-4.245000
 39
3
 62
7
  0
LINE
  8
Nuts
  6
CONTINUOUS
 10
4.546000
 20
-3.755000
 11
4.546000
 21
-4.245000
 39
3
 62
7
  0
LINE
  8
Nuts
  6
CONTINUOUS
 10
4.326000
 20
-4.245000
 11
4.546000
 21
-4.245000
 39
3
 62
7
  0
LINE
  8
Nuts
  6
CONTINUOUS
 10
4.326000
 20
-3.755000
 11
4.546000
 21
-3.755000
 39
3
 62
7
  0
ARC
  8
Nuts
  6
CONTINUOUS
 10
4.621000
 20
-3.806250
 40
0.025000
 50
0.000000
 51
90.000000
 39
3
 62
7
  0
LINE
  8
Nuts
  6
CONTINUOUS
 10
4.326000
 20
-3.781250
 11
4.621000
 21
-3.781250
 39
3
 62
7
  0
ARC
  8
Nuts
  6
CONTINUOUS
 10
4.621000
 20
-4.193750
 40
0.025000
 50
270.000000
 51
0.000000
 39
3
 62
7
  0
LINE
  8
Nuts
  6
CONTINUOUS
 10
4.646000
 20
-3.806250
 11
4.646000
 21
-4.193750
 39
3
 62
7
  0
LINE
  8
Nuts
  6
CONTINUOUS
 10
4.326000
 20
-4.218750
 11
4.621000
 21
-4.218750
 39
3
 62
7
  0
LINE
  8
Nuts
  6
CONTINUOUS
 10
5.451711
 20
-3.755000
 11
5.451711
 21
-4.245000
 39
3
 62
7
  0
LINE
  8
Nuts
  6
CONTINUOUS
 10
5.451711
 20
-3.755000
 11
5.671711
 21
-3.755000
 39
3
 62
7
  0
LINE
  8
Nuts
  6
CONTINUOUS
 10
5.671711
 20
-3.755000
 11
5.671711
 21
-4.245000
 39
3
 62
7
  0
LINE
  8
Nuts
  6
CONTINUOUS
 10
5.451711
 20
-4.245000
 11
5.671711
 21
-4.245000
 39
3
 62
7
  0
LINE
  8
Nuts
  6
CONTINUOUS
 10
5.451711
 20
-4.218750
 11
5.671711
 21
-4.218750
 39
3
 62
7
  0
LINE
  8
Nuts
  6
CONTINUOUS
 10
5.451711
 20
-3.781250
 11
5.671711
 21
-3.781250
 39
3
 62
7
  0
LINE
  8
Nuts
  6
CONTINUOUS
 10
5.868968
 20
-3.680000
 11
5.868968
 21
-4.320000
 39
3
 62
7
  0
LINE
  8
Nuts
  6
CONTINUOUS
 10
5.968968
 20
-3.680000
 11
5.968968
 21
-4.320000
 39
3
 62
7
  0
LINE
  8
Nuts
  6
CONTINUOUS
 10
5.868968
 20
-4.320000
 11
5.968968
 21
-4.320000
 39
3
 62
7
  0
LINE
  8
Nuts
  6
CONTINUOUS
 10
5.868968
 20
-4.281250
 11
5.968968
 21
-4.281250
 39
3
 62
7
  0
LINE
  8
Nuts
  6
CONTINUOUS
 10
5.868968
 20
-3.718750
 11
5.968968
 21
-3.718750
 39
3
 62
7
  0
LINE
  8
Nuts
  6
CONTINUOUS
 10
5.868968
 20
-3.680000
 11
5.968968
 21
-3.680000
 39
3
 62
7
  0
LINE
  8
Nuts
  6
CONTINUOUS
 10
-1.026296
 20
-4.218750
 11
-0.773704
 21
-4.218750
 39
3
 62
7
  0
LINE
  8
Nuts
  6
CONTINUOUS
 10
-0.773705
 20
-4.218750
 11
-0.647409
 21
-4.000000
 39
3
 62
7
  0
LINE
  8
Nuts
  6
CONTINUOUS
 10
-0.647409
 20
-4.000000
 11
-0.773705
 21
-3.781250
 39
3
 62
7
  0
LINE
  8
Nuts
  6
CONTINUOUS
 10
-0.773704
 20
-3.781250
 11
-1.026296
 21
-3.781250
 39
3
 62
7
  0
LINE
  8
Nuts
  6
CONTINUOUS
 10
-1.026295
 20
-3.781250
 11
-1.152591
 21
-4.000000
 39
3
 62
7
  0
LINE
  8
Nuts
  6
CONTINUOUS
 10
-1.152591
 20
-4.000000
 11
-1.026295
 21
-4.218750
 39
3
 62
7
  0
CIRCLE
  8
Nuts
  6
CONTINUOUS
 10
-0.900000
 20
-4.000000
 40
0.125000
 39
3
 62
7
  0
LINE
  8
default
  6
CONTINUOUS
 10
3.333784
 20
-3.233784
 11
-2.650000
 21
2.750000
 39
0
 62
7
  0
CIRCLE
  8
Bolts
  6
CONTINUOUS
 10
-0.900000
 20
-2.000000
 40
0.125000
 39
3
 62
1
  0
CIRCLE
  8
Bolts
  6
CONTINUOUS
 10
-0.900000
 20
-4.000000
 40
0.125000
 39
3
 62
1
  0
LINE
  8
Lower Plate
  6
CONTINUOUS
 10
-1.400000
 20
-1.500000
 11
-1.400000
 21
-4.500000
 39
3
 62
163
  0
LINE
  8
Lower Plate
  6
CONTINUOUS
 10
-1.400000
 20
-4.500000
 11
-0.150000
 21
-4.500000
 39
3
 62
163
  0
LINE
  8
Lower Plate
  6
CONTINUOUS
 10
-1.400000
 20
-1.500000
 11
-0.150000
 21
-1.500000
 39
3
 62
163
  0
ARC
  8
Plastic Plate
  6
DASH
 10
4.168500
 20
0.426250
 40
0.005000
 50
90.000000
 51
180.000000
 39
3
 62
221
  0
ARC
  8
Plastic Plate
  6
DASH
 10
4.221000
 20
0.426250
 40
0.005000
 50
0.000000
 51
90.000000
 39
3
 62
221
  0
LINE
  8
Plastic Plate
  6
DASH
 10
4.168500
 20
0.431250
 11
4.221000
 21
0.431250
 39
3
 62
221
  0
ARC
  8
Plastic Plate
  6
DASH
 10
4.168500
 20
0.498750
 40
0.005000
 50
180.000000
 51
270.000000
 39
3
 62
221
  0
ARC
  8
Plastic Plate
  6
DASH
 10
4.221000
 20
0.498750
 40
0.005000
 50
270.000000
 51
0.000000
 39
3
 62
221
  0
LINE
  8
Plastic Plate
  6
DASH
 10
4.168500
 20
0.493750
 11
4.221000
 21
0.493750
 39
3
 62
221
  0
LINE
  8
Plastic Plate
  6
CONTINUOUS
 10
4.163500
 20
-1.500000
 11
4.163500
 21
-4.500000
 39
3
 62
221
  0
LINE
  8
Plastic Plate
  6
CONTINUOUS
 10
4.226000
 20
-1.500000
 11
4.226000
 21
-4.500000
 39
3
 62
221
  0
LINE
  8
Plastic Plate
  6
CONTINUOUS
 10
4.163500
 20
-1.500000
 11
4.226000
 21
-1.500000
 39
3
 62
221
  0
LINE
  8
Plastic Plate
  6
CONTINUOUS
 10
4.163500
 20
-4.500000
 11
4.226000
 21
-4.500000
 39
3
 62
221
  0
LINE
  8
Plastic Plate
  6
CONTINUOUS
 10
-1.400000
 20
-1.500000
 11
-0.150000
 21
-1.500000
 39
3
 62
221
  0
LINE
  8
Plastic Plate
  6
CONTINUOUS
 10
-0.150000
 20
-1.500000
 11
-0.150000
 21
-4.500000
 39
3
 62
221
  0
LINE
  8
Plastic Plate
  6
CONTINUOUS
 10
-1.400000
 20
-4.500000
 11
-0.150000
 21
-4.500000
 39
3
 62
221
  0
LINE
  8
Plastic Plate
  6
CONTINUOUS
 10
-1.400000
 20
-1.500000
 11
-1.400000
 21
-4.500000
 39
3
 62
221
  0
LINE
  8
Button
  6
CONTINUOUS
 10
3.362500
 20
1.200000
 11
3.607500
 21
1.200000
 39
3
 62
121
  0
LINE
  8
Button
  6
CONTINUOUS
 10
3.362500
 20
0.800000
 11
3.607500
 21
0.800000
 39
3
 62
121
  0
LINE
  8
Button
  6
CONTINUOUS
 10
3.607500
 20
1.375000
 11
3.857500
 21
1.375000
 39
3
 62
121
  0
LINE
  8
Button
  6
CONTINUOUS
 10
3.607500
 20
0.625000
 11
3.857500
 21
0.625000
 39
3
 62
121
  0
LINE
  8
Button
  6
CONTINUOUS
 10
3.857500
 20
1.375000
 11
3.857500
 21
0.625000
 39
3
 62
121
  0
LINE
  8
Button
  6
CONTINUOUS
 10
3.362500
 20
0.625000
 11
3.362500
 21
1.375000
 39
3
 62
121
  0
LINE
  8
Button
  6
CONTINUOUS
 10
3.607500
 20
1.375000
 11
3.607500
 21
0.625000
 39
3
 62
121
  0
LINE
  8
Button
  6
CONTINUOUS
 10
3.107500
 20
1.375000
 11
3.362500
 21
1.375000
 39
3
 62
121
  0
LINE
  8
Button
  6
CONTINUOUS
 10
3.107500
 20
0.625000
 11
3.362500
 21
0.625000
 39
3
 62
121
  0
LINE
  8
Button
  6
CONTINUOUS
 10
3.107500
 20
1.375000
 11
3.107500
 21
0.625000
 39
3
 62
121
  0
LINE
  8
Button
  6
DASH
 10
3.107500
 20
0.825000
 11
3.857500
 21
0.825000
 39
3
 62
121
  0
LINE
  8
Button
  6
DASH
 10
3.107500
 20
1.175000
 11
3.857500
 21
1.175000
 39
3
 62
121
  0
LINE
  8
Button
  6
CONTINUOUS
 10
3.362500
 20
-1.800000
 11
3.607500
 21
-1.800000
 39
3
 62
121
  0
LINE
  8
Button
  6
CONTINUOUS
 10
3.362500
 20
-2.200000
 11
3.607500
 21
-2.200000
 39
3
 62
121
  0
LINE
  8
Button
  6
CONTINUOUS
 10
3.607500
 20
-1.625000
 11
3.857500
 21
-1.625000
 39
3
 62
121
  0
LINE
  8
Button
  6
CONTINUOUS
 10
3.607500
 20
-2.375000
 11
3.857500
 21
-2.375000
 39
3
 62
121
  0
LINE
  8
Button
  6
CONTINUOUS
 10
3.857500
 20
-1.625000
 11
3.857500
 21
-2.375000
 39
3
 62
121
  0
LINE
  8
Button
  6
CONTINUOUS
 10
3.362500
 20
-2.375000
 11
3.362500
 21
-1.625000
 39
3
 62
121
  0
LINE
  8
Button
  6
CONTINUOUS
 10
3.607500
 20
-1.625000
 11
3.607500
 21
-2.375000
 39
3
 62
121
  0
LINE
  8
Button
  6
CONTINUOUS
 10
3.107500
 20
-1.625000
 11
3.362500
 21
-1.625000
 39
3
 62
121
  0
LINE
  8
Button
  6
CONTINUOUS
 10
3.107500
 20
-2.375000
 11
3.362500
 21
-2.375000
 39
3
 62
121
  0
LINE
  8
Button
  6
CONTINUOUS
 10
3.107500
 20
-1.625000
 11
3.107500
 21
-2.375000
 39
3
 62
121
  0
LINE
  8
Button
  6
DASH
 10
3.107500
 20
-2.175000
 11
3.857500
 21
-2.175000
 39
3
 62
121
  0
LINE
  8
Button
  6
DASH
 10
3.107500
 20
-1.825000
 11
3.857500
 21
-1.825000
 39
3
 62
121
  0
LINE
  8
Button
  6
CONTINUOUS
 10
3.362500
 20
-3.800000
 11
3.607500
 21
-3.800000
 39
3
 62
121
  0
LINE
  8
Button
  6
CONTINUOUS
 10
3.362500
 20
-4.200000
 11
3.607500
 21
-4.200000
 39
3
 62
121
  0
LINE
  8
Button
  6
CONTINUOUS
 10
3.607500
 20
-3.625000
 11
3.857500
 21
-3.625000
 39
3
 62
121
  0
LINE
  8
Button
  6
CONTINUOUS
 10
3.607500
 20
-4.375000
 11
3.857500
 21
-4.375000
 39
3
 62
121
  0
LINE
  8
Button
  6
CONTINUOUS
 10
3.857500
 20
-3.625000
 11
3.857500
 21
-4.375000
 39
3
 62
121
  0
LINE
  8
Button
  6
CONTINUOUS
 10
3.362500
 20
-4.375000
 11
3.362500
 21
-3.625000
 39
3
 62
121
  0
LINE
  8
Button
  6
CONTINUOUS
 10
3.607500
 20
-3.625000
 11
3.607500
 21
-4.375000
 39
3
 62
121
  0
LINE
  8
Button
  6
CONTINUOUS
 10
3.107500
 20
-3.625000
 11
3.362500
 21
-3.625000
 39
3
 62
121
  0
LINE
  8
Button
  6
CONTINUOUS
 10
3.107500
 20
-4.375000
 11
3.362500
 21
-4.375000
 39
3
 62
121
  0
LINE
  8
Button
  6
CONTINUOUS
 10
3.107500
 20
-3.625000
 11
3.107500
 21
-4.375000
 39
3
 62
121
  0
LINE
  8
Button
  6
DASH
 10
3.107500
 20
-4.175000
 11
3.857500
 21
-4.175000
 39
3
 62
121
  0
LINE
  8
Button
  6
DASH
 10
3.107500
 20
-3.825000
 11
3.857500
 21
-3.825000
 39
3
 62
121
  0
CIRCLE
  8
Button
  6
CONTINUOUS
 10
-0.900000
 20
-2.000000
 40
0.375000
 39
3
 62
121
  0
CIRCLE
  8
Button
  6
CONTINUOUS
 10
-0.900000
 20
-2.000000
 40
0.175000
 39
3
 62
121
  0
CIRCLE
  8
Button
  6
DASH
 10
-0.900000
 20
-2.000000
 40
0.200000
 39
3
 62
121
  0
CIRCLE
  8
Button
  6
CONTINUOUS
 10
-0.900000
 20
-4.000000
 40
0.375000
 39
3
 62
121
  0
CIRCLE
  8
Button
  6
CONTINUOUS
 10
-0.900000
 20
-4.000000
 40
0.175000
 39
3
 62
121
  0
CIRCLE
  8
Button
  6
DASH
 10
-0.900000
 20
-4.000000
 40
0.200000
 39
3
 62
121
  0
CIRCLE
  8
Metal Spacer
  6
CONTINUOUS
 10
-0.900000
 20
-2.000000
 40
0.175000
 39
3
 62
4
  0
CIRCLE
  8
Metal Spacer
  6
CONTINUOUS
 10
-0.900000
 20
-4.000000
 40
0.175000
 39
3
 62
4
  0
CIRCLE
  8
Metal Spacer
  6
CONTINUOUS
 10
-0.900000
 20
-2.000000
 40
0.125000
 39
3
 62
4
  0
CIRCLE
  8
Metal Spacer
  6
CONTINUOUS
 10
-0.900000
 20
-4.000000
 40
0.125000
 39
3
 62
4
  0
CIRCLE
  8
Washers
  6
CONTINUOUS
 10
-0.900000
 20
-2.000000
 40
0.125000
 39
3
 62
2
  0
CIRCLE
  8
Washers
  6
CONTINUOUS
 10
-0.900000
 20
-2.000000
 40
0.250000
 39
3
 62
2
  0
CIRCLE
  8
Washers
  6
CONTINUOUS
 10
-0.900000
 20
-2.000000
 40
0.437500
 39
3
 62
2
  0
CIRCLE
  8
Washers
  6
CONTINUOUS
 10
-0.900000
 20
-2.000000
 40
0.500000
 39
3
 62
2
  0
CIRCLE
  8
Washers
  6
CONTINUOUS
 10
-0.900000
 20
-2.000000
 40
0.187500
 39
3
 62
2
  0
CIRCLE
  8
Washers
  6
CONTINUOUS
 10
-0.900000
 20
-4.000000
 40
0.125000
 39
3
 62
2
  0
CIRCLE
  8
Washers
  6
CONTINUOUS
 10
-0.900000
 20
-4.000000
 40
0.250000
 39
3
 62
2
  0
CIRCLE
  8
Washers
  6
CONTINUOUS
 10
-0.900000
 20
-4.000000
 40
0.437500
 39
3
 62
2
  0
CIRCLE
  8
Washers
  6
CONTINUOUS
 10
-0.900000
 20
-4.000000
 40
0.500000
 39
3
 62
2
  0
CIRCLE
  8
Washers
  6
CONTINUOUS
 10
-0.900000
 20
-4.000000
 40
0.187500
 39
3
 62
2
  0
LINE
  8
default
  6
CONTINUOUS
 10
7.100000
 20
2.750000
 11
7.100000
 21
-5.000000
 39
0
 62
7
  0
LINE
  8
default
  6
CONTINUOUS
 10
-1.654360
 20
-4.000000
 11
7.100000
 21
-4.000000
 39
0
 62
7
  0
LINE
  8
default
  6
CONTINUOUS
 10
-1.654360
 20
-2.000000
 11
7.100000
 21
-2.000000
 39
0
 62
7
  0
LINE
  8
default
  6
CONTINUOUS
 10
7.100000
 20
-0.760789
 11
3.480787
 21
2.858424
 39
0
 62
7
  0
LINE
  8
default
  6
CONTINUOUS
 10
-0.900000
 20
2.750000
 11
-0.900000
 21
-5.000000
 39
0
 62
7
  0
LINE
  8
Plastic Spacer
  6
DASH
 10
4.007500
 20
0.875000
 11
4.163500
 21
0.875000
 39
3
 62
15
  0
LINE
  8
Plastic Spacer
  6
DASH
 10
4.007500
 20
1.125000
 11
4.163500
 21
1.125000
 39
3
 62
15
  0
LINE
  8
Plastic Spacer
  6
DASH
 10
4.007500
 20
-3.875000
 11
4.163500
 21
-3.875000
 39
3
 62
15
  0
LINE
  8
Plastic Spacer
  6
DASH
 10
4.007500
 20
-4.125000
 11
4.163500
 21
-4.125000
 39
3
 62
15
  0
LINE
  8
Plastic Spacer
  6
DASH
 10
4.007500
 20
-2.125000
 11
4.163500
 21
-2.125000
 39
3
 62
15
  0
LINE
  8
Plastic Spacer
  6
DASH
 10
4.007500
 20
-1.875000
 11
4.163500
 21
-1.875000
 39
3
 62
15
  0
CIRCLE
  8
Plastic Spacer
  6
CONTINUOUS
 10
-0.900000
 20
-2.000000
 40
0.437500
 39
3
 62
15
  0
CIRCLE
  8
Plastic Spacer
  6
CONTINUOUS
 10
-0.900000
 20
-4.000000
 40
0.437500
 39
3
 62
15
  0
CIRCLE
  8
Plastic Spacer
  6
CONTINUOUS
 10
-0.900000
 20
-2.000000
 40
0.125000
 39
3
 62
15
  0
CIRCLE
  8
Plastic Spacer
  6
CONTINUOUS
 10
-0.900000
 20
-4.000000
 40
0.125000
 39
3
 62
15
  0
LINE
  8
default
  6
CONTINUOUS
 10
-0.362500
 20
3.295467
 11
-0.362500
 21
-5.440362
 39
0
 62
7
  0
LINE
  8
default
  6
CONTINUOUS
 10
0.106476
 20
-3.418911
 11
-1.906476
 21
-4.581089
 39
0
 62
7
  0
CIRCLE
  8
Ferrule
  6
CONTINUOUS
 10
-0.362500
 20
-3.689674
 40
0.080000
 39
3
 62
221
  0
CIRCLE
  8
Ferrule
  6
CONTINUOUS
 10
-0.362500
 20
-3.689674
 40
0.031250
 39
3
 62
221
  0
CIRCLE
  8
Custom Nut
  6
CONTINUOUS
 10
-0.900000
 20
-2.000000
 40
0.187500
 39
3
 62
3
  0
CIRCLE
  8
Custom Nut
  6
CONTINUOUS
 10
-0.900000
 20
-2.000000
 40
0.286554
 39
3
 62
3
  0
LINE
  8
Custom Nut
  6
CONTINUOUS
 10
-1.193578
 20
-1.595263
 11
-0.606422
 21
-1.595263
 39
3
 62
3
  0
ARC
  8
Custom Nut
  6
CONTINUOUS
 10
-0.900000
 20
-2.000000
 40
0.500000
 50
305.955428
 51
54.044572
 39
3
 62
3
  0
LINE
  8
Custom Nut
  6
CONTINUOUS
 10
-1.193578
 20
-2.404737
 11
-0.606422
 21
-2.404737
 39
3
 62
3
  0
ARC
  8
Custom Nut
  6
CONTINUOUS
 10
-0.900000
 20
-2.000000
 40
0.500000
 50
125.955428
 51
234.044572
 39
3
 62
3
  0
CIRCLE
  8
Custom Nut
  6
CONTINUOUS
 10
-0.900000
 20
-4.000000
 40
0.187500
 39
3
 62
3
  0
CIRCLE
  8
Custom Nut
  6
CONTINUOUS
 10
-0.900000
 20
-4.000000
 40
0.286554
 39
3
 62
3
  0
LINE
  8
Custom Nut
  6
CONTINUOUS
 10
-1.193578
 20
-3.595263
 11
-0.606422
 21
-3.595263
 39
3
 62
3
  0
ARC
  8
Custom Nut
  6
CONTINUOUS
 10
-0.900000
 20
-4.000000
 40
0.500000
 50
305.955428
 51
54.044572
 39
3
 62
3
  0
LINE
  8
Custom Nut
  6
CONTINUOUS
 10
-1.193578
 20
-4.404737
 11
-0.606422
 21
-4.404737
 39
3
 62
3
  0
ARC
  8
Custom Nut
  6
CONTINUOUS
 10
-0.900000
 20
-4.000000
 40
0.500000
 50
125.955428
 51
234.044572
 39
3
 62
3
  0
LINE
  8
default
  6
CONTINUOUS
 10
-0.900000
 20
-3.689674
 11
6.600000
 21
-3.689674
 39
0
 62
7
  0
LINE
  8
Ferrule
  6
CONTINUOUS
 10
3.832500
 20
-3.769674
 11
3.832500
 21
-3.609674
 39
3
 62
221
  0
LINE
  8
Ferrule
  6
CONTINUOUS
 10
3.832500
 20
-3.609674
 11
3.857500
 21
-3.609674
 39
3
 62
221
  0
LINE
  8
Ferrule
  6
CONTINUOUS
 10
3.832500
 20
-3.769674
 11
3.857500
 21
-3.769674
 39
3
 62
221
  0
LINE
  8
Ferrule
  6
CONTINUOUS
 10
3.857500
 20
-3.769674
 11
3.857500
 21
-3.609674
 39
3
 62
221
  0
LINE
  8
Ferrule
  6
CONTINUOUS
 10
3.857500
 20
-3.740924
 11
3.897500
 21
-3.740924
 39
3
 62
221
  0
LINE
  8
Ferrule
  6
CONTINUOUS
 10
3.857500
 20
-3.638424
 11
3.897500
 21
-3.638424
 39
3
 62
221
  0
LINE
  8
Ferrule
  6
CONTINUOUS
 10
3.897500
 20
-3.740924
 11
3.897500
 21
-3.638424
 39
3
 62
221
  0
LINE
  8
Ferrule
  6
DASH
 10
3.832500
 20
-3.658424
 11
3.897500
 21
-3.658424
 39
1
 62
221
  0
LINE
  8
Ferrule
  6
DASH
 10
3.832500
 20
-3.720924
 11
3.897500
 21
-3.720924
 39
1
 62
221
  0
LINE
  8
Lower Plate
  6
DASH
 10
3.857500
 20
-3.637674
 11
3.907500
 21
-3.637674
 39
3
 62
163
  0
LINE
  8
Lower Plate
  6
DASH
 10
3.857500
 20
-3.741674
 11
3.907500
 21
-3.741674
 39
3
 62
163
  0
LINE
  8
Lower Plate
  6
CONTINUOUS
 10
-0.320938
 20
-3.720924
 11
-0.150000
 21
-3.720924
 39
3
 62
163
  0
LINE
  8
Lower Plate
  6
CONTINUOUS
 10
-0.320938
 20
-3.658424
 11
-0.150000
 21
-3.658424
 39
3
 62
163
  0
ARC
  8
Lower Plate
  6
CONTINUOUS
 10
-0.362500
 20
-3.689674
 40
0.052000
 50
36.938794
 51
323.061206
 39
3
 62
163
  0
LINE
  8
Lower Plate
  6
CONTINUOUS
 10
-0.150000
 20
-1.500000
 11
-0.150000
 21
-3.658424
 39
3
 62
163
  0
LINE
  8
Lower Plate
  6
CONTINUOUS
 10
-0.150000
 20
-3.720924
 11
-0.150000
 21
-4.500000
 39
3
 62
163
  0
LINE
  8
Lower Plate
  6
CONTINUOUS
 10
3.857500
 20
-3.658424
 11
3.907500
 21
-3.658424
 39
3
 62
163
  0
LINE
  8
Lower Plate
  6
CONTINUOUS
 10
3.857500
 20
-3.720924
 11
3.907500
 21
-3.720924
 39
3
 62
163
  0
LINE
  8
Plastic Plate
  6
CONTINUOUS
 10
-0.393750
 20
-3.516567
 11
-0.393750
 21
-3.689674
 39
3
 62
221
  0
LINE
  8
Plastic Plate
  6
CONTINUOUS
 10
-0.331250
 20
-3.516567
 11
-0.331250
 21
-3.689674
 39
3
 62
221
  0
ARC
  8
Plastic Plate
  6
CONTINUOUS
 10
-0.362500
 20
-3.439674
 40
0.083000
 50
292.117425
 51
247.882575
 39
3
 62
221
  0
ARC
  8
Plastic Plate
  6
CONTINUOUS
 10
-0.362500
 20
-3.689674
 40
0.031250
 50
180.000000
 51
0.000000
 39
3
 62
221
  0
LINE
  8
Plastic Plate
  6
DASH
 10
4.163500
 20
-3.356674
 11
4.226000
 21
-3.356674
 39
3
 62
221
  0
LINE
  8
Plastic Plate
  6
DASH
 10
4.163500
 20
-3.522674
 11
4.226000
 21
-3.522674
 39
3
 62
221
  0
LINE
  8
Plastic Plate
  6
DASH
 10
4.163500
 20
-3.720924
 11
4.226000
 21
-3.720924
 39
3
 62
221
  0
LINE
  8
Plastic Plate
  6
DASH
 10
4.163500
 20
0.545500
 11
4.226000
 21
0.545500
 39
3
 62
221
  0
LINE
  8
Plastic Plate
  6
DASH
 10
4.163500
 20
0.379500
 11
4.226000
 21
0.379500
 39
3
 62
221
  0
LINE
  8
String
  6
CONTINUOUS
 10
3.632500
 20
-3.589674
 11
3.832500
 21
-3.589674
 39
2
 62
8
  0
LINE
  8
String
  6
CONTINUOUS
 10
3.832500
 20
-3.789674
 11
3.832500
 21
-3.589674
 39
2
 62
8
  0
LINE
  8
String
  6
CONTINUOUS
 10
3.632500
 20
-3.789674
 11
3.832500
 21
-3.789674
 39
2
 62
8
  0
LINE
  8
String
  6
CONTINUOUS
 10
3.632500
 20
-3.789674
 11
3.632500
 21
-3.589674
 39
2
 62
8
  0
HATCH
  8
String
  6
CONTINUOUS
  1
 
  2
plastic
 70
0
 91
1
 72
1
 10
3.632500
 20
-3.589674
 11
3.832500
 21
-3.589674
 72
1
 10
3.832500
 20
-3.789674
 11
3.832500
 21
-3.589674
 72
1
 10
3.632500
 20
-3.789674
 11
3.832500
 21
-3.789674
 72
1
 10
3.632500
 20
-3.789674
 11
3.632500
 21
-3.589674
 75
0
 76
1
 52
0.000000
 91
1
 41
0.050000
 77
0
 39
2
 62
8
  0
LINE
  8
String
  6
CONTINUOUS
 10
3.832500
 20
-3.659674
 11
6.714565
 21
-3.659674
 39
3
 62
8
  0
LINE
  8
String
  6
CONTINUOUS
 10
3.832500
 20
-3.719674
 11
6.714565
 21
-3.719674
 39
3
 62
8
  0
LINE
  8
default
  6
CONTINUOUS
 10
-0.900000
 20
-3.489674
 11
6.600000
 21
-3.489674
 39
0
 62
7
  0
LINE
  8
default
  6
CONTINUOUS
 10
5.596711
 20
2.750000
 11
5.596711
 21
-4.500000
 39
0
 62
7
  0
ARC
  8
Tension Screw
  6
CONTINUOUS
 10
6.112899
 20
-3.489674
 40
0.135722
 50
95.910548
 51
264.089452
 39
3
 62
1
  0
LINE
  8
Tension Screw
  6
DASH
 10
6.015030
 20
-3.408241
 11
5.933022
 21
-3.408241
 39
1
 62
1
  0
LINE
  8
Tension Screw
  6
DASH
 10
6.015030
 20
-3.571107
 11
5.933022
 21
-3.571107
 39
1
 62
1
  0
ARC
  8
Tension Screw
  6
DASH
 10
5.491099
 20
-3.489674
 40
0.081433
 50
275.910782
 51
84.089218
 39
1
 62
1
  0
ARC
  8
Tension Screw
  6
DASH
 10
6.013647
 20
-3.489674
 40
0.135722
 50
275.910548
 51
84.089452
 39
1
 62
1
  0
ARC
  8
Tension Screw
  6
DASH
 10
6.031802
 20
-3.489674
 40
0.081433
 50
95.910782
 51
264.089218
 39
1
 62
1
  0
ARC
  8
Tension Screw
  6
DASH
 10
6.015030
 20
-3.489674
 40
0.081433
 50
275.910782
 51
84.089218
 39
1
 62
1
  0
LINE
  8
default
  6
CONTINUOUS
 10
5.426438
 20
-3.408674
 11
5.572532
 21
-3.408674
 39
3
 62
1
  0
LINE
  8
default
  6
CONTINUOUS
 10
5.426438
 20
-3.570674
 11
5.572532
 21
-3.570674
 39
3
 62
1
  0
LINE
  8
default
  6
CONTINUOUS
 10
5.499485
 20
-3.570674
 11
5.499485
 21
-3.408674
 39
3
 62
1
  0
LINE
  8
default
  6
CONTINUOUS
 10
5.977177
 20
-3.624674
 11
6.220668
 21
-3.624674
 39
3
 62
1
  0
LINE
  8
default
  6
CONTINUOUS
 10
5.977177
 20
-3.354674
 11
6.220668
 21
-3.354674
 39
3
 62
1
  0
LINE
  8
default
  6
CONTINUOUS
 10
6.098922
 20
-3.354674
 11
6.098922
 21
-3.624674
 39
3
 62
1
  0
LINE
  8
default
  6
CONTINUOUS
 10
-0.880410
 20
-3.408674
 11
-0.810408
 21
-3.408674
 39
3
 62
1
  0
LINE
  8
default
  6
CONTINUOUS
 10
-0.880410
 20
-3.570674
 11
-0.810408
 21
-3.570674
 39
3
 62
1
  0
LINE
  8
default
  6
CONTINUOUS
 10
0.347275
 20
-3.624674
 11
0.463946
 21
-3.624674
 39
3
 62
1
  0
LINE
  8
default
  6
CONTINUOUS
 10
0.347275
 20
-3.354674
 11
0.463946
 21
-3.354674
 39
3
 62
1
  0
LINE
  8
default
  6
CONTINUOUS
 10
-0.845409
 20
-3.408674
 11
-0.845409
 21
-3.570674
 39
3
 62
1
  0
LINE
  8
default
  6
CONTINUOUS
 10
0.405610
 20
-3.354674
 11
0.405610
 21
-3.624674
 39
3
 62
1
  0
LINE
  8
default
  6
CONTINUOUS
 10
0.463946
 20
-3.354674
 11
0.463946
 21
-3.624674
 39
3
 62
1
  0
LINE
  8
default
  6
CONTINUOUS
 10
0.347275
 20
-3.354674
 11
0.347275
 21
-3.624674
 39
3
 62
1
  0
LINE
  8
default
  6
CONTINUOUS
 10
-0.810408
 20
-3.408674
 11
-0.810408
 21
-3.570674
 39
3
 62
1
  0
LINE
  8
default
  6
CONTINUOUS
 10
-0.880410
 20
-3.408674
 11
-0.880410
 21
-3.570674
 39
3
 62
1
  0
LINE
  8
String
  6
CONTINUOUS
 10
-0.462500
 20
-3.589674
 11
-0.462500
 21
-3.789674
 39
2
 62
8
  0
LINE
  8
String
  6
CONTINUOUS
 10
-0.462500
 20
-3.589674
 11
-0.212500
 21
-3.589674
 39
2
 62
8
  0
LINE
  8
String
  6
CONTINUOUS
 10
-0.212500
 20
-3.589674
 11
-0.212500
 21
-3.789674
 39
2
 62
8
  0
LINE
  8
String
  6
CONTINUOUS
 10
-0.462500
 20
-3.789674
 11
-0.212500
 21
-3.789674
 39
2
 62
8
  0
HATCH
  8
String
  6
CONTINUOUS
  1
 
  2
plastic
 70
0
 91
1
 72
1
 10
-0.462500
 20
-3.589674
 11
-0.462500
 21
-3.789674
 72
1
 10
-0.462500
 20
-3.589674
 11
-0.212500
 21
-3.589674
 72
1
 10
-0.212500
 20
-3.589674
 11
-0.212500
 21
-3.789674
 72
1
 10
-0.462500
 20
-3.789674
 11
-0.212500
 21
-3.789674
 75
0
 76
1
 52
0.000000
 91
1
 41
0.050000
 77
0
 39
2
 62
8
  0
CIRCLE
  8
String
  6
CONTINUOUS
 10
-0.362500
 20
-3.689674
 40
0.030000
 39
3
 62
8
  0
LINE
  8
default
  6
CONTINUOUS
 10
-2.650000
 20
2.750000
 11
7.100000
 21
2.750000
 39
0
 62
7
  0
LINE
  8
default
  6
CONTINUOUS
 10
-2.650000
 20
2.750000
 11
-2.650000
 21
-5.000000
 39
0
 62
7
  0
LINE
  8
default
  6
CONTINUOUS
 10
-2.650000
 20
-5.000000
 11
7.100000
 21
-5.000000
 39
0
 62
7
  0
LINE
  8
default
  6
CONTINUOUS
 10
-2.650000
 20
-3.000000
 11
7.100000
 21
-3.000000
 39
0
 62
7
  0
LINE
  8
String
  6
CONTINUOUS
 10
-2.650000
 20
-3.659674
 11
-0.362500
 21
-3.659674
 39
3
 62
8
  0
LINE
  8
String
  6
CONTINUOUS
 10
-2.650000
 20
-3.719674
 11
-0.362500
 21
-3.719674
 39
3
 62
8
  0
LINE
  8
Bobbin
  6
CONTINUOUS
 10
5.585172
 20
-3.245001
 11
5.585172
 21
-3.734348
 39
3
 62
221
  0
ARC
  8
Bobbin
  6
CONTINUOUS
 10
5.871994
 20
-3.489674
 40
0.377004
 50
95.910527
 51
139.534150
 39
3
 62
221
  0
ARC
  8
Bobbin
  6
CONTINUOUS
 10
5.871994
 20
-3.489674
 40
0.377004
 50
220.465850
 51
264.089473
 39
3
 62
221
  0
LINE
  8
default
  6
CONTINUOUS
 10
5.585172
 20
-3.864674
 11
6.081172
 21
-3.864674
 39
3
 62
221
  0
LINE
  8
default
  6
CONTINUOUS
 10
5.833172
 20
-3.114674
 11
5.833172
 21
-3.864674
 39
3
 62
221
  0
LINE
  8
default
  6
CONTINUOUS
 10
5.494990
 20
-3.114674
 11
5.494990
 21
-3.864674
 39
3
 62
221
  0
LINE
  8
default
  6
CONTINUOUS
 10
5.585172
 20
-3.114674
 11
6.081172
 21
-3.114674
 39
3
 62
221
  0
LINE
  8
default
  6
CONTINUOUS
 10
6.171354
 20
-3.114674
 11
6.171354
 21
-3.864674
 39
3
 62
221
  0
LINE
  8
Bobbin
  6
CONTINUOUS
 10
5.779311
 20
-3.245001
 11
5.779311
 21
-3.734348
 39
3
 62
221
  0
LINE
  8
Bobbin
  6
CONTINUOUS
 10
6.275311
 20
-3.245001
 11
6.275311
 21
-3.734348
 39
3
 62
221
  0
ARC
  8
Bobbin
  6
CONTINUOUS
 10
6.066133
 20
-3.489674
 40
0.377004
 50
95.910527
 51
139.534150
 39
3
 62
221
  0
ARC
  8
Bobbin
  6
CONTINUOUS
 10
6.066133
 20
-3.489674
 40
0.377004
 50
220.465850
 51
264.089473
 39
3
 62
221
  0
ARC
  8
Bobbin
  6
CONTINUOUS
 10
5.988489
 20
-3.489674
 40
0.377004
 50
275.910579
 51
319.534225
 39
3
 62
221
  0
ARC
  8
Bobbin
  6
CONTINUOUS
 10
5.988489
 20
-3.489674
 40
0.377004
 50
40.465775
 51
84.089421
 39
3
 62
221
  0
LINE
  8
default
  6
CONTINUOUS
 10
5.751914
 20
-3.339674
 11
6.022459
 21
-3.339674
 39
3
 62
221
  0
LINE
  8
default
  6
CONTINUOUS
 10
6.022459
 20
-3.339674
 11
6.022459
 21
-3.639674
 39
3
 62
221
  0
LINE
  8
default
  6
CONTINUOUS
 10
5.751914
 20
-3.639674
 11
6.022459
 21
-3.639674
 39
3
 62
221
  0
LINE
  8
default
  6
CONTINUOUS
 10
5.751914
 20
-3.339674
 11
5.751914
 21
-3.639674
 39
3
 62
221
  0
ARC
  8
Bobbin
  6
DASH
 10
5.902716
 20
-3.489674
 40
0.150802
 50
95.910665
 51
264.089335
 39
1
 62
221
  0
ARC
  8
Bobbin
  6
DASH
 10
5.871657
 20
-3.489674
 40
0.150802
 50
275.910665
 51
84.089335
 39
1
 62
221
  0
ARC
  8
Bobbin
  6
DASH
 10
5.989139
 20
-3.489674
 40
0.150802
 50
95.910665
 51
264.089335
 39
1
 62
221
  0
ARC
  8
Bobbin
  6
DASH
 10
5.958080
 20
-3.489674
 40
0.150802
 50
275.910665
 51
84.089335
 39
1
 62
221
  0
LINE
  8
Bobbin
  6
DASH
 10
5.887186
 20
-3.339674
 11
5.973609
 21
-3.339674
 39
1
 62
221
  0
LINE
  8
Bobbin
  6
DASH
 10
5.887186
 20
-3.639674
 11
5.973609
 21
-3.639674
 39
1
 62
221
  0
LINE
  8
Bobbin
  6
CONTINUOUS
 10
5.639187
 20
-3.245001
 11
5.639187
 21
-3.734348
 39
3
 62
221
  0
ARC
  8
Bobbin
  6
CONTINUOUS
 10
5.926009
 20
-3.489674
 40
0.377004
 50
95.910527
 51
139.534150
 39
3
 62
221
  0
ARC
  8
Bobbin
  6
CONTINUOUS
 10
5.926009
 20
-3.489674
 40
0.377004
 50
220.465850
 51
264.089473
 39
3
 62
221
  0
LINE
  8
Bobbin
  6
CONTINUOUS
 10
5.725610
 20
-3.245001
 11
5.725610
 21
-3.734348
 39
3
 62
221
  0
ARC
  8
Bobbin
  6
CONTINUOUS
 10
6.012432
 20
-3.489674
 40
0.377004
 50
95.910527
 51
139.534150
 39
3
 62
221
  0
ARC
  8
Bobbin
  6
CONTINUOUS
 10
6.012432
 20
-3.489674
 40
0.377004
 50
220.465850
 51
264.089473
 39
3
 62
221
  0
LINE
  8
Bobbin
  6
CONTINUOUS
 10
5.725610
 20
-3.245001
 11
5.779311
 21
-3.245001
 39
3
 62
221
  0
LINE
  8
Bobbin
  6
CONTINUOUS
 10
5.725610
 20
-3.734348
 11
5.779311
 21
-3.734348
 39
3
 62
221
  0
LINE
  8
Bobbin
  6
CONTINUOUS
 10
6.027311
 20
-3.114674
 11
5.973610
 21
-3.114674
 39
3
 62
221
  0
LINE
  8
Bobbin
  6
CONTINUOUS
 10
6.027311
 20
-3.864674
 11
5.973610
 21
-3.864674
 39
3
 62
221
  0
LINE
  8
Bobbin
  6
DASH
 10
6.221610
 20
-3.245001
 11
6.221610
 21
-3.734348
 39
1
 62
221
  0
ARC
  8
Bobbin
  6
DASH
 10
5.934788
 20
-3.489674
 40
0.377004
 50
275.910579
 51
319.534225
 39
1
 62
221
  0
ARC
  8
Bobbin
  6
DASH
 10
5.934788
 20
-3.489674
 40
0.377004
 50
40.465775
 51
84.089421
 39
1
 62
221
  0
LINE
  8
Bobbin
  6
DASH
 10
6.221610
 20
-3.245001
 11
6.275311
 21
-3.245001
 39
1
 62
221
  0
LINE
  8
Bobbin
  6
DASH
 10
6.275311
 20
-3.734348
 11
6.221610
 21
-3.734348
 39
1
 62
221
  0
LINE
  8
Bobbin
  6
CONTINUOUS
 10
5.887187
 20
-3.114674
 11
5.833172
 21
-3.114674
 39
3
 62
221
  0
LINE
  8
Bobbin
  6
CONTINUOUS
 10
5.887187
 20
-3.864674
 11
5.833172
 21
-3.864674
 39
3
 62
221
  0
LINE
  8
Bobbin
  6
CONTINUOUS
 10
5.639187
 20
-3.734348
 11
5.585172
 21
-3.734348
 39
3
 62
221
  0
LINE
  8
Bobbin
  6
CONTINUOUS
 10
5.639187
 20
-3.245001
 11
5.585172
 21
-3.245001
 39
3
 62
221
  0
ARC
  8
Bobbin
  6
CONTINUOUS
 10
5.848365
 20
-3.489674
 40
0.377004
 50
77.432241
 51
84.089421
 39
3
 62
221
  0
ARC
  8
Bobbin
  6
CONTINUOUS
 10
5.848365
 20
-3.489674
 40
0.377004
 50
275.910579
 51
282.567759
 39
3
 62
221
  0
LINE
  8
Bobbin
  6
DASH
 10
6.081172
 20
-3.245001
 11
6.081172
 21
-3.734348
 39
1
 62
221
  0
ARC
  8
Bobbin
  6
DASH
 10
5.794350
 20
-3.489674
 40
0.377004
 50
275.910579
 51
319.534225
 39
1
 62
221
  0
ARC
  8
Bobbin
  6
DASH
 10
5.794350
 20
-3.489674
 40
0.377004
 50
40.465775
 51
84.089421
 39
1
 62
221
  0
LINE
  8
Bobbin
  6
DASH
 10
6.135187
 20
-3.245001
 11
6.135187
 21
-3.734348
 39
1
 62
221
  0
LINE
  8
Bobbin
  6
DASH
 10
6.135187
 20
-3.245001
 11
6.081172
 21
-3.245001
 39
1
 62
221
  0
LINE
  8
Bobbin
  6
DASH
 10
6.135187
 20
-3.734348
 11
6.081172
 21
-3.734348
 39
1
 62
221
  0
ARC
  8
Bobbin
  6
DASH
 10
5.848365
 20
-3.489674
 40
0.377004
 50
40.465775
 51
77.432241
 39
1
 62
221
  0
ARC
  8
Bobbin
  6
DASH
 10
5.848365
 20
-3.489674
 40
0.377004
 50
282.567759
 51
319.534225
 39
1
 62
221
  0
LINE
  8
default
  6
CONTINUOUS
 10
-0.267840
 20
-3.114674
 11
-0.030177
 21
-3.114674
 39
3
 62
221
  0
LINE
  8
default
  6
CONTINUOUS
 10
-0.267840
 20
-3.864674
 11
-0.030177
 21
-3.864674
 39
3
 62
221
  0
LINE
  8
default
  6
CONTINUOUS
 10
6.225369
 20
0.298324
 11
6.171354
 21
0.411052
 39
3
 62
221
  0
LINE
  8
default
  6
CONTINUOUS
 10
5.549004
 20
-0.025762
 11
5.494990
 21
0.086966
 39
3
 62
221
  0
LINE
  8
default
  6
CONTINUOUS
 10
-0.101098
 20
-3.639674
 11
0.028536
 21
-3.639674
 39
3
 62
221
  0
LINE
  8
default
  6
CONTINUOUS
 10
-0.101098
 20
-3.339674
 11
-0.101098
 21
-3.639674
 39
3
 62
221
  0
LINE
  8
default
  6
CONTINUOUS
 10
0.028536
 20
-3.339674
 11
0.028536
 21
-3.639674
 39
3
 62
221
  0
LINE
  8
default
  6
CONTINUOUS
 10
-0.101098
 20
-3.339674
 11
0.028536
 21
-3.339674
 39
3
 62
221
  0
ARC
  8
Bobbin
  6
CONTINUOUS
 10
6.194149
 20
-3.489674
 40
0.031252
 50
90.000000
 51
270.000000
 39
3
 62
221
  0
ARC
  8
Bobbin
  6
CONTINUOUS
 10
6.194772
 20
-3.489674
 40
0.031252
 50
270.000000
 51
90.000000
 39
3
 62
221
  0
LINE
  8
default
  6
CONTINUOUS
 10
6.226024
 20
-3.458424
 11
6.226024
 21
-3.520924
 39
3
 62
221
  0
LINE
  8
default
  6
CONTINUOUS
 10
6.162897
 20
-3.520924
 11
6.226024
 21
-3.520924
 39
3
 62
221
  0
LINE
  8
default
  6
CONTINUOUS
 10
6.162897
 20
-3.458424
 11
6.162897
 21
-3.520924
 39
3
 62
221
  0
LINE
  8
default
  6
CONTINUOUS
 10
6.162897
 20
-3.458424
 11
6.226024
 21
-3.458424
 39
3
 62
221
  0
ARC
  8
Bobbin
  6
CONTINUOUS
 10
6.140758
 20
-3.489674
 40
0.031252
 50
328.671385
 51
31.328615
 39
3
 62
221
  0
ARC
  8
Bobbin
  6
DASH
 10
6.140135
 20
-3.489674
 40
0.031252
 50
90.000000
 51
270.000000
 39
1
 62
221
  0
LINE
  8
Bobbin
  6
DASH
 10
6.194772
 20
-3.458423
 11
6.140135
 21
-3.458423
 39
1
 62
221
  0
LINE
  8
Bobbin
  6
DASH
 10
6.194772
 20
-3.520926
 11
6.140135
 21
-3.520926
 39
1
 62
221
  0
ARC
  8
Bobbin
  6
DASH
 10
6.140758
 20
-3.489674
 40
0.031252
 50
31.328615
 51
90.000000
 39
1
 62
221
  0
ARC
  8
Bobbin
  6
DASH
 10
6.140758
 20
-3.489674
 40
0.031252
 50
270.000000
 51
328.671385
 39
1
 62
221
  0
ARC
  8
Bobbin
  6
CONTINUOUS
 10
5.720039
 20
-3.489674
 40
0.031252
 50
90.000000
 51
270.000000
 39
3
 62
221
  0
ARC
  8
Bobbin
  6
CONTINUOUS
 10
5.666647
 20
-3.489674
 40
0.031252
 50
328.673148
 51
31.326852
 39
3
 62
221
  0
ARC
  8
Bobbin
  6
DASH
 10
5.720662
 20
-3.489674
 40
0.031252
 50
270.000000
 51
90.000000
 39
1
 62
221
  0
ARC
  8
Bobbin
  6
DASH
 10
5.666024
 20
-3.489674
 40
0.031252
 50
90.000000
 51
270.000000
 39
1
 62
221
  0
LINE
  8
Bobbin
  6
DASH
 10
5.720662
 20
-3.458423
 11
5.666024
 21
-3.458423
 39
1
 62
221
  0
LINE
  8
Bobbin
  6
DASH
 10
5.720662
 20
-3.520926
 11
5.666024
 21
-3.520926
 39
1
 62
221
  0
ARC
  8
Bobbin
  6
DASH
 10
5.666647
 20
-3.489674
 40
0.031252
 50
31.326852
 51
90.000000
 39
1
 62
221
  0
ARC
  8
Bobbin
  6
DASH
 10
5.666647
 20
-3.489674
 40
0.031252
 50
270.000000
 51
328.673148
 39
1
 62
221
  0
ARC
  8
Bobbin
  6
CONTINUOUS
 10
0.203882
 20
-3.489674
 40
0.514934
 50
133.260189
 51
156.359998
 39
3
 62
221
  0
ARC
  8
Bobbin
  6
CONTINUOUS
 10
0.203882
 20
-3.489674
 40
0.514934
 50
203.640002
 51
226.739811
 39
3
 62
221
  0
LINE
  8
Bobbin
  6
CONTINUOUS
 10
-0.267840
 20
-3.283192
 11
-0.267840
 21
-3.696157
 39
3
 62
221
  0
ARC
  8
Bobbin
  6
CONTINUOUS
 10
-0.096082
 20
-3.489674
 40
0.514935
 50
313.260356
 51
336.360211
 39
3
 62
221
  0
ARC
  8
Bobbin
  6
CONTINUOUS
 10
-0.096082
 20
-3.489674
 40
0.514935
 50
23.639789
 51
46.739644
 39
3
 62
221
  0
LINE
  8
Bobbin
  6
CONTINUOUS
 10
0.375642
 20
-3.283193
 11
0.375642
 21
-3.696156
 39
3
 62
221
  0
ARC
  8
Bobbin
  6
CONTINUOUS
 10
-0.208810
 20
-3.489674
 40
0.514935
 50
313.260356
 51
336.360211
 39
3
 62
221
  0
ARC
  8
Bobbin
  6
CONTINUOUS
 10
-0.208810
 20
-3.489674
 40
0.514935
 50
23.639789
 51
46.739644
 39
3
 62
221
  0
LINE
  8
Bobbin
  6
CONTINUOUS
 10
0.262914
 20
-3.283193
 11
0.262914
 21
-3.696156
 39
3
 62
221
  0
ARC
  8
Bobbin
  6
CONTINUOUS
 10
-0.389173
 20
-3.489674
 40
0.514935
 50
313.260356
 51
329.366697
 39
3
 62
221
  0
ARC
  8
Bobbin
  6
CONTINUOUS
 10
-0.389173
 20
-3.489674
 40
0.514935
 50
30.633303
 51
46.739644
 39
3
 62
221
  0
ARC
  8
Bobbin
  6
CONTINUOUS
 10
-0.501901
 20
-3.489674
 40
0.514935
 50
313.260356
 51
336.360211
 39
3
 62
221
  0
ARC
  8
Bobbin
  6
CONTINUOUS
 10
-0.501901
 20
-3.489674
 40
0.514935
 50
23.639789
 51
46.739644
 39
3
 62
221
  0
LINE
  8
Bobbin
  6
CONTINUOUS
 10
-0.030177
 20
-3.283193
 11
-0.030177
 21
-3.696156
 39
3
 62
221
  0
LINE
  8
Bobbin
  6
CONTINUOUS
 10
0.082551
 20
-3.283193
 11
0.082551
 21
-3.696156
 39
3
 62
221
  0
ARC
  8
Bobbin
  6
CONTINUOUS
 10
-0.389173
 20
-3.489674
 40
0.514935
 50
329.366697
 51
336.360211
 39
3
 62
221
  0
ARC
  8
Bobbin
  6
CONTINUOUS
 10
-0.389173
 20
-3.489674
 40
0.514935
 50
23.639789
 51
30.633303
 39
3
 62
221
  0
ARC
  8
Bobbin
  6
CONTINUOUS
 10
0.002926
 20
-3.489674
 40
0.205974
 50
313.260367
 51
46.739633
 39
3
 62
221
  0
LINE
  8
Bobbin
  6
CONTINUOUS
 10
0.144082
 20
-3.114674
 11
0.256810
 21
-3.114674
 39
3
 62
221
  0
LINE
  8
Bobbin
  6
CONTINUOUS
 10
0.144082
 20
-3.864674
 11
0.256810
 21
-3.864674
 39
3
 62
221
  0
LINE
  8
Bobbin
  6
CONTINUOUS
 10
0.262914
 20
-3.696156
 11
0.375642
 21
-3.696156
 39
3
 62
221
  0
LINE
  8
Bobbin
  6
CONTINUOUS
 10
0.262914
 20
-3.283193
 11
0.375642
 21
-3.283193
 39
3
 62
221
  0
ARC
  8
Bobbin
  6
DASH
 10
0.609701
 20
-3.489674
 40
0.514934
 50
133.260189
 51
156.359998
 39
1
 62
221
  0
ARC
  8
Bobbin
  6
DASH
 10
0.609701
 20
-3.489674
 40
0.514934
 50
203.640002
 51
226.739811
 39
1
 62
221
  0
LINE
  8
Bobbin
  6
DASH
 10
0.137979
 20
-3.283192
 11
0.137979
 21
-3.696157
 39
1
 62
221
  0
LINE
  8
Bobbin
  6
DASH
 10
0.025251
 20
-3.283192
 11
0.137979
 21
-3.283192
 39
1
 62
221
  0
LINE
  8
Bobbin
  6
DASH
 10
0.025251
 20
-3.696157
 11
0.137979
 21
-3.696157
 39
1
 62
221
  0
ARC
  8
Bobbin
  6
CONTINUOUS
 10
0.496973
 20
-3.489674
 40
0.514934
 50
133.260189
 51
149.366603
 39
3
 62
221
  0
ARC
  8
Bobbin
  6
CONTINUOUS
 10
0.496973
 20
-3.489674
 40
0.514934
 50
210.633397
 51
226.739811
 39
3
 62
221
  0
LINE
  8
Bobbin
  6
DASH
 10
0.025251
 20
-3.283192
 11
0.025251
 21
-3.696157
 39
1
 62
221
  0
ARC
  8
Bobbin
  6
DASH
 10
0.496973
 20
-3.489674
 40
0.514934
 50
149.366603
 51
156.359998
 39
1
 62
221
  0
ARC
  8
Bobbin
  6
DASH
 10
0.496973
 20
-3.489674
 40
0.514934
 50
203.640002
 51
210.633397
 39
1
 62
221
  0
LINE
  8
Bobbin
  6
CONTINUOUS
 10
0.082551
 20
-3.339674
 11
0.144083
 21
-3.339674
 39
3
 62
221
  0
LINE
  8
Bobbin
  6
CONTINUOUS
 10
0.082551
 20
-3.639674
 11
0.144083
 21
-3.639674
 39
3
 62
221
  0
ARC
  8
Bobbin
  6
DASH
 10
0.104876
 20
-3.489674
 40
0.205974
 50
133.260367
 51
226.739633
 39
1
 62
221
  0
ARC
  8
Bobbin
  6
DASH
 10
-0.177438
 20
-3.489674
 40
0.205974
 50
313.260367
 51
46.739633
 39
1
 62
221
  0
LINE
  8
Bobbin
  6
DASH
 10
-0.036281
 20
-3.339674
 11
0.082551
 21
-3.339674
 39
1
 62
221
  0
LINE
  8
Bobbin
  6
DASH
 10
-0.030177
 20
-3.639674
 11
0.082551
 21
-3.639674
 39
1
 62
221
  0
ARC
  8
Bobbin
  6
DASH
 10
0.285240
 20
-3.489674
 40
0.205974
 50
133.260367
 51
226.739633
 39
1
 62
221
  0
LINE
  8
Bobbin
  6
CONTINUOUS
 10
-0.149009
 20
-3.114674
 11
-0.036281
 21
-3.114674
 39
3
 62
221
  0
LINE
  8
Bobbin
  6
CONTINUOUS
 10
-0.030177
 20
-3.283193
 11
0.082551
 21
-3.283193
 39
3
 62
221
  0
LINE
  8
Bobbin
  6
CONTINUOUS
 10
-0.030177
 20
-3.696156
 11
0.082551
 21
-3.696156
 39
3
 62
221
  0
LINE
  8
Bobbin
  6
CONTINUOUS
 10
-0.149009
 20
-3.864674
 11
-0.036281
 21
-3.864674
 39
3
 62
221
  0
ARC
  8
Bobbin
  6
DASH
 10
0.316610
 20
-3.489674
 40
0.514934
 50
133.260189
 51
156.359998
 39
1
 62
221
  0
ARC
  8
Bobbin
  6
DASH
 10
0.316610
 20
-3.489674
 40
0.514934
 50
203.640002
 51
226.739811
 39
1
 62
221
  0
LINE
  8
Bobbin
  6
DASH
 10
-0.155112
 20
-3.283192
 11
-0.155112
 21
-3.696157
 39
1
 62
221
  0
LINE
  8
Bobbin
  6
DASH
 10
-0.267840
 20
-3.696157
 11
-0.155112
 21
-3.696157
 39
1
 62
221
  0
LINE
  8
Bobbin
  6
DASH
 10
-0.267840
 20
-3.283192
 11
-0.155112
 21
-3.283192
 39
1
 62
221
  0
LINE
  8
default
  6
CONTINUOUS
 10
0.161745
 20
-3.458424
 11
0.191993
 21
-3.458424
 39
3
 62
221
  0
LINE
  8
default
  6
CONTINUOUS
 10
0.191993
 20
-3.458424
 11
0.191993
 21
-3.520924
 39
3
 62
221
  0
LINE
  8
default
  6
CONTINUOUS
 10
0.161745
 20
-3.520924
 11
0.191993
 21
-3.520924
 39
3
 62
221
  0
LINE
  8
default
  6
CONTINUOUS
 10
0.161745
 20
-3.458424
 11
0.161745
 21
-3.520924
 39
3
 62
221
  0
ARC
  8
Bobbin
  6
CONTINUOUS
 10
-0.044344
 20
-3.489674
 40
0.039847
 50
128.349007
 51
231.650993
 39
3
 62
221
  0
ARC
  8
Bobbin
  6
CONTINUOUS
 10
-0.093790
 20
-3.489674
 40
0.039847
 50
308.349007
 51
51.650993
 39
3
 62
221
  0
ARC
  8
Bobbin
  6
DASH
 10
0.201592
 20
-3.489674
 40
0.039847
 50
128.349007
 51
231.650993
 39
1
 62
221
  0
ARC
  8
Bobbin
  6
DASH
 10
0.152146
 20
-3.489674
 40
0.039847
 50
308.349007
 51
51.650993
 39
1
 62
221
  0
ARC
  8
Bobbin
  6
DASH
 10
0.088865
 20
-3.489674
 40
0.039847
 50
128.349007
 51
231.650993
 39
1
 62
221
  0
ARC
  8
Bobbin
  6
DASH
 10
0.039419
 20
-3.489674
 40
0.039847
 50
308.349007
 51
51.650993
 39
1
 62
221
  0
LINE
  8
Bobbin
  6
DASH
 10
0.064142
 20
-3.458424
 11
0.176869
 21
-3.458424
 39
1
 62
221
  0
LINE
  8
Bobbin
  6
DASH
 10
0.176869
 20
-3.520924
 11
0.064142
 21
-3.520924
 39
1
 62
221
  0
ARC
  8
Bobbin
  6
DASH
 10
0.068383
 20
-3.489674
 40
0.039847
 50
128.349007
 51
231.650993
 39
1
 62
221
  0
ARC
  8
Bobbin
  6
DASH
 10
0.018937
 20
-3.489674
 40
0.039847
 50
308.349007
 51
51.650993
 39
1
 62
221
  0
LINE
  8
Bobbin
  6
DASH
 10
-0.069067
 20
-3.458424
 11
0.043660
 21
-3.458424
 39
1
 62
221
  0
LINE
  8
Bobbin
  6
DASH
 10
0.043660
 20
-3.520924
 11
-0.069067
 21
-3.520924
 39
1
 62
221
  0
ARC
  8
Bobbin
  6
CONTINUOUS
 10
6.098941
 20
-3.489674
 40
0.143914
 50
119.706360
 51
240.293640
 39
3
 62
221
  0
ARC
  8
Bobbin
  6
CONTINUOUS
 10
5.956306
 20
-3.489674
 40
0.143914
 50
299.706360
 51
60.293640
 39
3
 62
221
  0
ARC
  8
Bobbin
  6
DASH
 10
5.904490
 20
-3.489674
 40
0.143914
 50
119.706360
 51
240.293640
 39
1
 62
221
  0
ARC
  8
Bobbin
  6
DASH
 10
5.761855
 20
-3.489674
 40
0.143914
 50
299.706360
 51
60.293640
 39
1
 62
221
  0
LINE
  8
Bobbin
  6
DASH
 10
5.833172
 20
-3.364674
 11
6.027624
 21
-3.364674
 39
1
 62
221
  0
LINE
  8
Bobbin
  6
DASH
 10
6.027624
 20
-3.614674
 11
5.833172
 21
-3.614674
 39
1
 62
221
  0
ARC
  8
Bobbin
  6
CONTINUOUS
 10
0.058193
 20
-3.489674
 40
0.241986
 50
148.898357
 51
211.101643
 39
3
 62
221
  0
ARC
  8
Bobbin
  6
CONTINUOUS
 10
-0.356209
 20
-3.489674
 40
0.241986
 50
328.898357
 51
31.101643
 39
3
 62
221
  0
ARC
  8
Bobbin
  6
DASH
 10
0.464011
 20
-3.489674
 40
0.241986
 50
148.898357
 51
211.101643
 39
1
 62
221
  0
ARC
  8
Bobbin
  6
DASH
 10
0.049609
 20
-3.489674
 40
0.241986
 50
328.898357
 51
31.101643
 39
1
 62
221
  0
LINE
  8
Bobbin
  6
DASH
 10
-0.149008
 20
-3.364674
 11
0.256810
 21
-3.364674
 39
1
 62
221
  0
LINE
  8
Bobbin
  6
DASH
 10
-0.149008
 20
-3.614674
 11
0.256810
 21
-3.614674
 39
1
 62
221
  0
ARC
  8
Tension Screw
  6
CONTINUOUS
 10
-0.769184
 20
-3.489674
 40
0.111226
 50
133.260582
 51
226.739418
 39
3
 62
1
  0
ARC
  8
Tension Screw
  6
CONTINUOUS
 10
0.278570
 20
-3.489674
 40
0.185376
 50
313.260224
 51
46.739776
 39
3
 62
1
  0
LINE
  8
Tension Screw
  6
CONTINUOUS
 10
0.405610
 20
-3.354674
 11
0.256810
 21
-3.354674
 39
3
 62
1
  0
LINE
  8
Tension Screw
  6
CONTINUOUS
 10
0.405610
 20
-3.624674
 11
0.256810
 21
-3.624674
 39
3
 62
1
  0
LINE
  8
Tension Screw
  6
CONTINUOUS
 10
0.217108
 20
-3.408674
 11
-0.845409
 21
-3.408674
 39
3
 62
1
  0
LINE
  8
Tension Screw
  6
CONTINUOUS
 10
0.217108
 20
-3.570674
 11
-0.845409
 21
-3.570674
 39
3
 62
1
  0
ARC
  8
Tension Screw
  6
CONTINUOUS
 10
0.129770
 20
-3.489674
 40
0.185376
 50
313.260224
 51
46.739776
 39
3
 62
1
  0
ARC
  8
Tension Screw
  6
CONTINUOUS
 10
0.180585
 20
-3.489674
 40
0.111226
 50
313.260582
 51
46.739418
 39
3
 62
1
  0
LINE
  8
Tension Screw
  6
CONTINUOUS
 10
0.256811
 20
-3.408674
 11
0.217108
 21
-3.408674
 39
3
 62
1
  0
LINE
  8
Tension Screw
  6
CONTINUOUS
 10
0.256811
 20
-3.570674
 11
0.217108
 21
-3.570674
 39
3
 62
1
  0
ARC
  8
Tension Screw
  6
CONTINUOUS
 10
-0.921634
 20
-3.489674
 40
0.111226
 50
313.260582
 51
46.739418
 39
3
 62
1
  0
ARC
  8
Tension Screw
  6
DASH
 10
0.532651
 20
-3.489674
 40
0.185376
 50
133.260224
 51
226.739776
 39
1
 62
1
  0
ARC
  8
Tension Screw
  6
DASH
 10
0.333036
 20
-3.489674
 40
0.111226
 50
133.260582
 51
226.739418
 39
1
 62
1
  0
ARC
  8
Tension Screw
  6
CONTINUOUS
 10
0.383851
 20
-3.489674
 40
0.185376
 50
133.260224
 51
154.090609
 39
3
 62
1
  0
ARC
  8
Tension Screw
  6
CONTINUOUS
 10
0.383851
 20
-3.489674
 40
0.185376
 50
205.909391
 51
226.739776
 39
3
 62
1
  0
ARC
  8
Tension Screw
  6
DASH
 10
0.383851
 20
-3.489674
 40
0.185376
 50
154.090609
 51
205.909391
 39
1
 62
1
  0
LINE
  8
String
  6
CONTINUOUS
 10
0.064142
 20
-3.459674
 11
0.900000
 21
-3.459674
 39
3
 62
8
  0
LINE
  8
String
  6
CONTINUOUS
 10
0.064142
 20
-3.519674
 11
0.900000
 21
-3.519674
 39
3
 62
8
  0
LINE
  8
default
  6
CONTINUOUS
 10
7.100000
 20
1.785848
 11
5.596711
 21
2.500000
 39
0
 62
7
  0
LINE
  8
Swivel
  6
CONTINUOUS
 10
5.438893
 20
-2.989674
 11
5.438893
 21
-3.989674
 39
3
 62
6
  0
LINE
  8
Swivel
  6
CONTINUOUS
 10
5.438893
 20
-3.989674
 11
5.754529
 21
-3.989674
 39
3
 62
6
  0
LINE
  8
Swivel
  6
CONTINUOUS
 10
5.754529
 20
-2.989674
 11
5.754529
 21
-3.989674
 39
3
 62
6
  0
LINE
  8
Swivel
  6
CONTINUOUS
 10
5.438893
 20
-2.989674
 11
5.754529
 21
-2.989674
 39
3
 62
6
  0
LINE
  8
Swivel
  6
DASH
 10
5.523664
 20
0.707499
 11
5.590696
 21
0.567603
 39
3
 62
6
  0
LINE
  8
Swivel
  6
DASH
 10
5.669758
 20
0.777501
 11
5.736790
 21
0.637606
 39
3
 62
6
  0
ARC
  8
Swivel
  6
CONTINUOUS
 10
5.734171
 20
-3.489674
 40
0.143475
 50
119.398013
 51
240.601987
 39
3
 62
6
  0
ARC
  8
Swivel
  6
CONTINUOUS
 10
5.593315
 20
-3.489674
 40
0.143475
 50
299.398013
 51
60.601987
 39
3
 62
6
  0
ARC
  8
Swivel
  6
CONTINUOUS
 10
5.526283
 20
-3.489674
 40
0.143475
 50
316.425273
 51
43.574727
 39
3
 62
6
  0
ARC
  8
Swivel
  6
DASH
 10
5.667139
 20
-3.489674
 40
0.143475
 50
119.398013
 51
240.601987
 39
1
 62
6
  0
LINE
  8
Swivel
  6
DASH
 10
5.663743
 20
-3.364674
 11
5.596711
 21
-3.364674
 39
1
 62
6
  0
LINE
  8
Swivel
  6
DASH
 10
5.663743
 20
-3.614674
 11
5.596711
 21
-3.614674
 39
1
 62
6
  0
ARC
  8
Swivel
  6
DASH
 10
5.526283
 20
-3.489674
 40
0.143475
 50
43.574727
 51
60.601987
 39
1
 62
6
  0
ARC
  8
Swivel
  6
DASH
 10
5.526283
 20
-3.489674
 40
0.143475
 50
299.398013
 51
316.425273
 39
1
 62
6
  0
LINE
  8
Swivel
  6
CONTINUOUS
 10
-0.718120
 20
-2.989674
 11
-0.718120
 21
-3.989674
 39
3
 62
6
  0
LINE
  8
Swivel
  6
CONTINUOUS
 10
-0.566880
 20
-2.989674
 11
-0.566880
 21
-3.989674
 39
3
 62
6
  0
LINE
  8
Swivel
  6
CONTINUOUS
 10
-0.467500
 20
-2.989674
 11
-0.467500
 21
-3.989674
 39
3
 62
6
  0
LINE
  8
Swivel
  6
CONTINUOUS
 10
-0.718120
 20
-3.989674
 11
-0.467500
 21
-3.989674
 39
3
 62
6
  0
LINE
  8
Swivel
  6
CONTINUOUS
 10
-0.718120
 20
-2.989674
 11
-0.467500
 21
-2.989674
 39
3
 62
6
  0
ARC
  8
Swivel
  6
CONTINUOUS
 10
-0.566275
 20
-3.489674
 40
0.111226
 50
133.260377
 51
226.739623
 39
3
 62
6
  0
ARC
  8
Swivel
  6
CONTINUOUS
 10
-0.718725
 20
-3.489674
 40
0.111226
 50
313.260377
 51
46.739623
 39
3
 62
6
  0
ARC
  8
Swivel
  6
DASH
 10
-0.426380
 20
-3.489674
 40
0.111226
 50
133.260377
 51
226.739623
 39
1
 62
6
  0
ARC
  8
Swivel
  6
DASH
 10
-0.578829
 20
-3.489674
 40
0.111226
 50
313.260377
 51
46.739623
 39
1
 62
6
  0
LINE
  8
Swivel
  6
DASH
 10
-0.642500
 20
-3.408674
 11
-0.502604
 21
-3.408674
 39
1
 62
6
  0
LINE
  8
Swivel
  6
DASH
 10
-0.502604
 20
-3.570674
 11
-0.642500
 21
-3.570674
 39
1
 62
6
  0
ARC
  8
Tension Nut
  6
CONTINUOUS
 10
5.614517
 20
-3.489674
 40
0.172919
 50
95.910469
 51
264.089531
 39
3
 62
7
  0
ARC
  8
Tension Nut
  6
CONTINUOUS
 10
5.578905
 20
-3.489674
 40
0.172919
 50
275.910469
 51
84.089531
 39
3
 62
7
  0
ARC
  8
Tension Nut
  6
CONTINUOUS
 10
5.560503
 20
-3.489674
 40
0.172919
 50
95.910469
 51
264.089531
 39
3
 62
7
  0
LINE
  8
Tension Nut
  6
CONTINUOUS
 10
5.596711
 20
-3.317674
 11
5.542697
 21
-3.317674
 39
3
 62
7
  0
LINE
  8
Tension Nut
  6
CONTINUOUS
 10
5.596711
 20
-3.661674
 11
5.542697
 21
-3.661674
 39
3
 62
7
  0
ARC
  8
Tension Nut
  6
DASH
 10
5.524891
 20
-3.489674
 40
0.172919
 50
275.910469
 51
84.089531
 39
1
 62
7
  0
ARC
  8
Tension Nut
  6
CONTINUOUS
 10
5.605097
 20
-3.489674
 40
0.081433
 50
95.910793
 51
264.089207
 39
3
 62
7
  0
ARC
  8
Tension Nut
  6
CONTINUOUS
 10
5.588325
 20
-3.489674
 40
0.081433
 50
275.910793
 51
84.089207
 39
3
 62
7
  0
LINE
  8
Tension Nut
  6
DASH
 10
5.437241
 20
0.887863
 11
5.523664
 21
0.707499
 39
3
 62
7
  0
LINE
  8
Tension Nut
  6
DASH
 10
5.669758
 20
0.777501
 11
5.583335
 21
0.957865
 39
3
 62
7
  0
ARC
  8
Tension Nut
  6
CONTINUOUS
 10
5.518674
 20
-3.489674
 40
0.081433
 50
95.910793
 51
264.089207
 39
1
 62
7
  0
LINE
  8
Tension Nut
  6
CONTINUOUS
 10
5.510288
 20
-3.408674
 11
5.596711
 21
-3.408674
 39
1
 62
7
  0
LINE
  8
Tension Nut
  6
CONTINUOUS
 10
5.596711
 20
-3.570674
 11
5.510288
 21
-3.570674
 39
1
 62
7
  0
ARC
  8
Tension Nut
  6
CONTINUOUS
 10
5.501902
 20
-3.489674
 40
0.081433
 50
275.910793
 51
50.682326
 39
1
 62
7
  0
ARC
  8
Tension Nut
  6
CONTINUOUS
 10
5.501902
 20
-3.489674
 40
0.081433
 50
50.682326
 51
84.089207
 39
1
 62
7
  0
ARC
  8
Tension Nut
  6
CONTINUOUS
 10
5.525816
 20
-3.489674
 40
0.150802
 50
124.707147
 51
235.292853
 39
3
 62
7
  0
ARC
  8
Tension Nut
  6
CONTINUOUS
 10
-0.804359
 20
-3.489674
 40
0.236183
 50
313.260083
 51
46.739917
 39
3
 62
7
  0
ARC
  8
Tension Nut
  6
CONTINUOUS
 10
-0.917087
 20
-3.489674
 40
0.236183
 50
313.260083
 51
46.739917
 39
3
 62
7
  0
LINE
  8
Tension Nut
  6
CONTINUOUS
 10
-0.642500
 20
-3.317674
 11
-0.755228
 21
-3.317674
 39
3
 62
7
  0
LINE
  8
Tension Nut
  6
CONTINUOUS
 10
-0.642500
 20
-3.661674
 11
-0.755228
 21
-3.661674
 39
3
 62
7
  0
ARC
  8
Tension Nut
  6
DASH
 10
-0.480641
 20
-3.489674
 40
0.236183
 50
133.260083
 51
226.739917
 39
1
 62
7
  0
ARC
  8
Tension Nut
  6
CONTINUOUS
 10
-0.746639
 20
-3.489674
 40
0.111226
 50
133.260319
 51
226.739681
 39
3
 62
7
  0
ARC
  8
Tension Nut
  6
CONTINUOUS
 10
-0.899088
 20
-3.489674
 40
0.111226
 50
313.260319
 51
46.739681
 39
3
 62
7
  0
ARC
  8
Tension Nut
  6
CONTINUOUS
 10
-0.896384
 20
-3.489674
 40
0.205974
 50
313.260334
 51
46.739666
 39
3
 62
7
  0
ARC
  8
Tension Nut
  6
CONTINUOUS
 10
-0.681707
 20
-3.489674
 40
0.205974
 50
133.260334
 51
226.739666
 39
3
 62
7
  0
ARC
  8
Tension Nut
  6
CONTINUOUS
 10
-0.964021
 20
-3.489674
 40
0.205974
 50
313.260334
 51
46.739666
 39
3
 62
7
  0
LINE
  8
Tension Nut
  6
CONTINUOUS
 10
-0.755228
 20
-3.339674
 11
-0.822864
 21
-3.339674
 39
3
 62
7
  0
LINE
  8
Tension Nut
  6
CONTINUOUS
 10
-0.755228
 20
-3.639674
 11
-0.822864
 21
-3.639674
 39
3
 62
7
  0
ARC
  8
Tension Nut
  6
DASH
 10
-0.566275
 20
-3.489674
 40
0.111226
 50
133.260319
 51
226.739681
 39
1
 62
7
  0
ARC
  8
Tension Nut
  6
DASH
 10
-0.718725
 20
-3.489674
 40
0.111226
 50
313.260319
 51
46.739681
 39
1
 62
7
  0
ARC
  8
Tension Nut
  6
DASH
 10
-0.614071
 20
-3.489674
 40
0.205974
 50
133.260334
 51
226.739666
 39
1
 62
7
  0
ARC
  8
Tension Nut
  6
CONTINUOUS
 10
-0.593369
 20
-3.489674
 40
0.236183
 50
133.260083
 51
140.572543
 39
3
 62
7
  0
ARC
  8
Tension Nut
  6
CONTINUOUS
 10
-0.593369
 20
-3.489674
 40
0.236183
 50
219.427457
 51
226.739917
 39
3
 62
7
  0
ARC
  8
Tension Nut
  6
DASH
 10
-0.593369
 20
-3.489674
 40
0.236183
 50
140.572543
 51
219.427457
 39
1
 62
7
  0
LINE
  8
Upper Plate
  6
CONTINUOUS
 10
5.846711
 20
-1.625000
 11
5.846711
 21
-4.375000
 39
3
 62
163
  0
LINE
  8
Upper Plate
  6
CONTINUOUS
 10
-1.195000
 20
-1.625000
 11
-1.195000
 21
-4.375000
 39
3
 62
163
  0
LINE
  8
Upper Plate
  6
CONTINUOUS
 10
-0.467500
 20
-1.625000
 11
-0.467500
 21
-4.375000
 39
3
 62
163
  0
LINE
  8
Upper Plate
  6
CONTINUOUS
 10
-0.392500
 20
-1.625000
 11
-0.392500
 21
-4.375000
 39
3
 62
163
  0
LINE
  8
Upper Plate
  6
CONTINUOUS
 10
-1.195000
 20
-1.625000
 11
-0.392500
 21
-1.625000
 39
3
 62
163
  0
LINE
  8
Upper Plate
  6
CONTINUOUS
 10
5.509211
 20
-1.625000
 11
5.846711
 21
-1.625000
 39
3
 62
163
  0
LINE
  8
Upper Plate
  6
CONTINUOUS
 10
5.509211
 20
-4.375000
 11
5.846711
 21
-4.375000
 39
3
 62
163
  0
LINE
  8
Upper Plate
  6
CONTINUOUS
 10
-1.195000
 20
-4.375000
 11
-0.392500
 21
-4.375000
 39
3
 62
163
  0
LINE
  8
Upper Plate
  6
DASH
 10
5.771711
 20
-1.625000
 11
5.771711
 21
-4.375000
 39
3
 62
163
  0
ARC
  8
Bobbin Detail
  6
CONTINUOUS
 10
0.000000
 20
0.000000
 40
0.375000
 50
223.945520
 51
317.166572
 39
3
 62
221
  0
ARC
  8
Bobbin Detail
  6
CONTINUOUS
 10
0.000000
 20
0.000000
 40
0.375000
 50
42.833428
 51
136.054480
 39
3
 62
221
  0
LINE
  8
Bobbin Detail
  6
CONTINUOUS
 10
0.275000
 20
0.254951
 11
0.275000
 21
-0.254951
 39
3
 62
221
  0
LINE
  8
Bobbin Detail
  6
CONTINUOUS
 10
-0.270000
 20
0.260240
 11
-0.270000
 21
-0.260240
 39
3
 62
221
  0
CIRCLE
  8
Bobbin Detail
  6
CONTINUOUS
 10
0.000000
 20
0.000000
 40
0.080500
 39
3
 62
221
  0
CIRCLE
  8
Bobbin Detail
  6
CONTINUOUS
 10
0.181250
 20
0.000000
 40
0.031250
 39
3
 62
221
  0
CIRCLE
  8
Bobbin Detail
  6
DASH
 10
-0.181250
 20
0.000000
 40
0.031250
 39
1
 62
221
  0
CIRCLE
  8
Bobbin Detail
  6
DASH
 10
0.000000
 20
0.000000
 40
0.150000
 39
1
 62
221
  0
LINE
  8
Bobbin Detail
  6
CONTINUOUS
 10
-0.150000
 20
1.325000
 11
-0.150000
 21
1.125000
 39
3
 62
221
  0
LINE
  8
Bobbin Detail
  6
CONTINUOUS
 10
0.150000
 20
1.325000
 11
0.150000
 21
1.125000
 39
3
 62
221
  0
LINE
  8
Bobbin Detail
  6
DASH
 10
0.220000
 20
1.125000
 11
0.220000
 21
1.000000
 39
3
 62
221
  0
LINE
  8
Bobbin Detail
  6
DASH
 10
0.150000
 20
1.125000
 11
0.150000
 21
1.000000
 39
3
 62
221
  0
LINE
  8
Bobbin Detail
  6
DASH
 10
0.080500
 20
1.450000
 11
0.080500
 21
1.000000
 39
3
 62
221
  0
LINE
  8
Bobbin Detail
  6
DASH
 10
-0.080500
 20
1.450000
 11
-0.080500
 21
1.000000
 39
3
 62
221
  0
LINE
  8
Bobbin Detail
  6
DASH
 10
-0.150000
 20
1.450000
 11
-0.150000
 21
1.325000
 39
3
 62
221
  0
LINE
  8
Bobbin Detail
  6
DASH
 10
-0.220000
 20
1.450000
 11
-0.220000
 21
1.325000
 39
3
 62
221
  0
LINE
  8
Bobbin Detail
  6
CONTINUOUS
 10
-0.270000
 20
1.000000
 11
0.270000
 21
1.000000
 39
3
 62
221
  0
LINE
  8
Bobbin Detail
  6
CONTINUOUS
 10
0.270000
 20
1.125000
 11
-0.270000
 21
1.125000
 39
3
 62
221
  0
LINE
  8
Bobbin Detail
  6
CONTINUOUS
 10
0.270000
 20
1.450000
 11
-0.270000
 21
1.450000
 39
3
 62
221
  0
LINE
  8
Bobbin Detail
  6
CONTINUOUS
 10
0.270000
 20
1.325000
 11
-0.270000
 21
1.325000
 39
3
 62
221
  0
LINE
  8
Bobbin Detail
  6
CONTINUOUS
 10
-0.275000
 20
1.450000
 11
-0.275000
 21
1.325000
 39
3
 62
221
  0
LINE
  8
Bobbin Detail
  6
CONTINUOUS
 10
-0.275000
 20
1.125000
 11
-0.275000
 21
1.000000
 39
3
 62
221
  0
LINE
  8
Bobbin Detail
  6
CONTINUOUS
 10
0.275000
 20
1.450000
 11
0.275000
 21
1.325000
 39
3
 62
221
  0
LINE
  8
Bobbin Detail
  6
CONTINUOUS
 10
0.275000
 20
1.125000
 11
0.275000
 21
1.000000
 39
3
 62
221
  0
LINE
  8
Bobbin Detail
  6
CONTINUOUS
 10
-1.450000
 20
0.375000
 11
-1.450000
 21
-0.375000
 39
3
 62
221
  0
LINE
  8
Bobbin Detail
  6
CONTINUOUS
 10
-1.000000
 20
0.375000
 11
-1.000000
 21
-0.375000
 39
3
 62
221
  0
LINE
  8
Bobbin Detail
  6
CONTINUOUS
 10
-1.325000
 20
0.150000
 11
-1.125000
 21
0.150000
 39
3
 62
221
  0
LINE
  8
Bobbin Detail
  6
CONTINUOUS
 10
-1.325000
 20
-0.150000
 11
-1.125000
 21
-0.150000
 39
3
 62
221
  0
LINE
  8
Bobbin Detail
  6
CONTINUOUS
 10
-1.125000
 20
0.375000
 11
-1.125000
 21
-0.375000
 39
3
 62
221
  0
LINE
  8
Bobbin Detail
  6
CONTINUOUS
 10
-1.325000
 20
0.375000
 11
-1.325000
 21
-0.375000
 39
3
 62
221
  0
LINE
  8
Bobbin Detail
  6
CONTINUOUS
 10
-1.450000
 20
0.375000
 11
-1.325000
 21
0.375000
 39
3
 62
221
  0
LINE
  8
Bobbin Detail
  6
CONTINUOUS
 10
-1.125000
 20
0.375000
 11
-1.000000
 21
0.375000
 39
3
 62
221
  0
LINE
  8
Bobbin Detail
  6
CONTINUOUS
 10
-1.450000
 20
-0.375000
 11
-1.325000
 21
-0.375000
 39
3
 62
221
  0
LINE
  8
Bobbin Detail
  6
CONTINUOUS
 10
-1.125000
 20
-0.375000
 11
-1.000000
 21
-0.375000
 39
3
 62
221
  0
LINE
  8
Bobbin Detail
  6
DASH
 10
-1.450000
 20
-0.080500
 11
-1.000000
 21
-0.080500
 39
3
 62
221
  0
LINE
  8
Bobbin Detail
  6
DASH
 10
-1.450000
 20
0.080500
 11
-1.000000
 21
0.080500
 39
3
 62
221
  0
LINE
  8
Bobbin Detail
  6
DASH
 10
-1.125000
 20
0.031250
 11
-1.000000
 21
0.031250
 39
3
 62
221
  0
LINE
  8
Bobbin Detail
  6
DASH
 10
-1.450000
 20
0.031250
 11
-1.325000
 21
0.031250
 39
3
 62
221
  0
LINE
  8
Bobbin Detail
  6
DASH
 10
-1.125000
 20
-0.031250
 11
-1.000000
 21
-0.031250
 39
3
 62
221
  0
LINE
  8
Bobbin Detail
  6
DASH
 10
-1.450000
 20
-0.031250
 11
-1.325000
 21
-0.031250
 39
3
 62
221
  0
LINE
  8
Bobbin Detail
  6
DASHDOT
 10
0.000000
 20
1.700000
 11
0.000000
 21
-0.600000
 39
1
 62
221
  0
LINE
  8
Bobbin Detail
  6
DASHDOT
 10
-1.700000
 20
0.000000
 11
0.500000
 21
0.000000
 39
1
 62
221
  0
LINE
  8
Bobbin Detail
  6
CONTINUOUS
 10
-1.700000
 20
1.700000
 11
0.500000
 21
1.700000
 39
3
 62
221
  0
LINE
  8
Bobbin Detail
  6
CONTINUOUS
 10
0.500000
 20
1.700000
 11
0.500000
 21
-0.600000
 39
3
 62
221
  0
LINE
  8
Bobbin Detail
  6
CONTINUOUS
 10
-1.700000
 20
-0.600000
 11
0.500000
 21
-0.600000
 39
3
 62
221
  0
LINE
  8
Bobbin Detail
  6
CONTINUOUS
 10
-1.700000
 20
1.700000
 11
-1.700000
 21
-0.600000
 39
3
 62
221
  0
LINE
  8
Bobbin
  6
DASH
 10
5.955027
 20
-0.191596
 11
5.760576
 21
0.214223
 39
3
 62
221
  0
ARC
  8
Upper Plate
  6
CONTINUOUS
 10
5.503245
 20
0.530000
 40
0.037500
 50
90.000000
 51
270.000000
 39
3
 62
163
  0
LINE
  8
Upper Plate
  6
CONTINUOUS
 10
5.503245
 20
0.492500
 11
5.596711
 21
0.492500
 39
3
 62
163
  0
LINE
  8
Upper Plate
  6
CONTINUOUS
 10
5.503245
 20
0.567500
 11
5.596711
 21
0.567500
 39
3
 62
163
  0
LINE
  8
Upper Plate
  6
DASH
 10
5.570000
 20
0.567500
 11
5.558552
 21
0.492500
 39
3
 62
163
  0
LINE
  8
Upper Plate
  6
DASH
 10
5.760170
 20
0.680000
 11
5.830223
 21
0.653214
 39
3
 62
163
  0
ARC
  8
Upper Plate
  6
CONTINUOUS
 10
5.639552
 20
-3.489674
 40
0.081000
 50
90.000000
 51
270.000000
 39
3
 62
163
  0
LINE
  8
Upper Plate
  6
CONTINUOUS
 10
5.639552
 20
-3.408241
 11
5.749223
 21
-3.408241
 39
3
 62
163
  0
ARC
  8
Upper Plate
  6
CONTINUOUS
 10
5.749223
 20
-3.489674
 40
0.081000
 50
270.000000
 51
90.000000
 39
3
 62
163
  0
LINE
  8
Upper Plate
  6
CONTINUOUS
 10
5.639552
 20
-3.571107
 11
5.749223
 21
-3.571107
 39
3
 62
163
  0
LINE
  8
Upper Plate
  6
CONTINUOUS
 10
-0.467500
 20
-3.408674
 11
-0.467500
 21
-3.570674
 39
3
 62
163
  0
ARC
  8
Upper Plate
  6
CONTINUOUS
 10
-0.468774
 20
-3.489674
 40
0.111226
 50
133.260582
 51
226.739418
 39
3
 62
163
  0
LINE
  8
Upper Plate
  6
CONTINUOUS
 10
-0.544999
 20
-3.408674
 11
-0.467500
 21
-3.408674
 39
3
 62
163
  0
LINE
  8
Upper Plate
  6
CONTINUOUS
 10
-0.544999
 20
-3.570674
 11
-0.467500
 21
-3.570674
 39
3
 62
163
  0
ARC
  8
Upper Plate
  6
CONTINUOUS
 10
5.639552
 20
-3.489674
 40
0.173807
 50
122.287228
 51
237.712772
 39
3
 62
163
  0
LINE
  8
Upper Plate
  6
CONTINUOUS
 10
5.546711
 20
-1.625000
 11
5.546711
 21
-3.342741
 39
3
 62
163
  0
LINE
  8
Upper Plate
  6
CONTINUOUS
 10
5.546711
 20
-3.636607
 11
5.546711
 21
-4.375000
 39
3
 62
163
  0
LINE
  8
Upper Plate
  6
CONTINUOUS
 10
5.509211
 20
-1.625000
 11
5.509211
 21
-3.374696
 39
3
 62
163
  0
LINE
  8
Upper Plate
  6
CONTINUOUS
 10
5.509211
 20
-3.604652
 11
5.509211
 21
-4.375000
 39
3
 62
163
  0
LINE
  8
Upper Plate
  6
CONTINUOUS
 10
-0.467500
 20
-3.636607
 11
-0.392500
 21
-3.636607
 39
3
 62
163
  0
LINE
  8
Upper Plate
  6
CONTINUOUS
 10
-0.467500
 20
-3.342741
 11
-0.392500
 21
-3.342741
 39
3
 62
163
  0
CIRCLE
  8
Ferrule
  6
DASH
 10
-0.362500
 20
-3.689674
 40
0.051250
 39
3
 62
221
  0
LINE
  8
Tension Screw
  6
CONTINUOUS
 10
5.933022
 20
-3.408241
 11
5.507871
 21
-3.408241
 39
3
 62
1
  0
ARC
  8
Tension Screw
  6
CONTINUOUS
 10
5.507871
 20
-3.489674
 40
0.081433
 50
90.000000
 51
270.000000
 39
3
 62
1
  0
LINE
  8
Tension Screw
  6
CONTINUOUS
 10
5.933022
 20
-3.571107
 11
5.507871
 21
-3.571107
 39
3
 62
1
  0
ARC
  8
Tension Screw
  6
CONTINUOUS
 10
6.041600
 20
-3.489674
 40
0.135722
 50
90.000000
 51
270.000000
 39
3
 62
1
  0
LINE
  8
Tension Screw
  6
CONTINUOUS
 10
6.084946
 20
-3.625396
 11
6.041600
 21
-3.625396
 39
3
 62
1
  0
LINE
  8
Tension Screw
  6
CONTINUOUS
 10
6.084946
 20
-3.353953
 11
6.041600
 21
-3.353953
 39
3
 62
1
  0
ARC
  8
Tension Screw
  6
CONTINUOUS
 10
6.084946
 20
-3.489674
 40
0.135722
 50
270.000000
 51
90.000000
 39
3
 62
1
  0
LINE
  8
String
  6
CONTINUOUS
 10
6.203529
 20
-3.459674
 11
6.758552
 21
-3.459674
 39
3
 62
8
  0
LINE
  8
String
  6
CONTINUOUS
 10
6.203529
 20
-3.519674
 11
6.758552
 21
-3.519674
 39
3
 62
8
  0
TEXT
  8
Bobbin Detail
  6
CONTINUOUS
 10
-1.701934
 20
2.089818
 40
0.200000
 50
0.000000
 72
0
  7
Normal#0.030000#0.120000
  1
Detail of
 39
0
 62
221
  0
TEXT
  8
Bobbin Detail
  6
CONTINUOUS
 10
-1.701934
 20
1.809818
 40
0.200000
 50
0.000000
 72
0
  7
Normal#0.030000#0.120000
  1
Tension Bobbin
 39
0
 62
221
  0
ENDSEC
  0
EOF
